  0
SECTION
  2
HEADER
  9
$ACADVER
  1
AC1027
  9
$ACADMAINTVER
 70
    55
  9
$DWGCODEPAGE
  3
ANSI_1252
  9
$LASTSAVEDBY
  1
danica
  9
$REQUIREDVERSIONS
160
                 0
  9
$INSBASE
 10
0.0
 20
0.0
 30
0.0
  9
$EXTMIN
 10
-16.714418690078
 20
1.029554283394148
 30
-0.0000000000022887
  9
$EXTMAX
 10
-1.285304638177247
 20
30.56986040506103
 30
0.0000000000000001
  9
$LIMMIN
 10
0.0
 20
0.0
  9
$LIMMAX
 10
12.0
 20
9.0
  9
$ORTHOMODE
 70
     0
  9
$REGENMODE
 70
     1
  9
$FILLMODE
 70
     1
  9
$QTEXTMODE
 70
     0
  9
$MIRRTEXT
 70
     0
  9
$LTSCALE
 40
1.0
  9
$ATTMODE
 70
     1
  9
$TEXTSIZE
 40
0.2
  9
$TRACEWID
 40
0.05
  9
$TEXTSTYLE
  7
Standard
  9
$CLAYER
  8
0
  9
$CELTYPE
  6
ByLayer
  9
$CECOLOR
 62
   256
  9
$CELTSCALE
 40
1.0
  9
$DISPSILH
 70
     0
  9
$DIMSCALE
 40
1.0
  9
$DIMASZ
 40
0.18
  9
$DIMEXO
 40
0.0625
  9
$DIMDLI
 40
0.38
  9
$DIMRND
 40
0.0
  9
$DIMDLE
 40
0.0
  9
$DIMEXE
 40
0.18
  9
$DIMTP
 40
0.0
  9
$DIMTM
 40
0.0
  9
$DIMTXT
 40
0.18
  9
$DIMCEN
 40
0.09
  9
$DIMTSZ
 40
0.0
  9
$DIMTOL
 70
     0
  9
$DIMLIM
 70
     0
  9
$DIMTIH
 70
     1
  9
$DIMTOH
 70
     1
  9
$DIMSE1
 70
     0
  9
$DIMSE2
 70
     0
  9
$DIMTAD
 70
     0
  9
$DIMZIN
 70
     0
  9
$DIMBLK
  1

  9
$DIMASO
 70
     1
  9
$DIMSHO
 70
     1
  9
$DIMPOST
  1

  9
$DIMAPOST
  1

  9
$DIMALT
 70
     0
  9
$DIMALTD
 70
     2
  9
$DIMALTF
 40
25.4
  9
$DIMLFAC
 40
1.0
  9
$DIMTOFL
 70
     0
  9
$DIMTVP
 40
0.0
  9
$DIMTIX
 70
     0
  9
$DIMSOXD
 70
     0
  9
$DIMSAH
 70
     0
  9
$DIMBLK1
  1

  9
$DIMBLK2
  1

  9
$DIMSTYLE
  2
Standard
  9
$DIMCLRD
 70
     0
  9
$DIMCLRE
 70
     0
  9
$DIMCLRT
 70
     0
  9
$DIMTFAC
 40
1.0
  9
$DIMGAP
 40
0.09
  9
$DIMJUST
 70
     0
  9
$DIMSD1
 70
     0
  9
$DIMSD2
 70
     0
  9
$DIMTOLJ
 70
     1
  9
$DIMTZIN
 70
     0
  9
$DIMALTZ
 70
     0
  9
$DIMALTTZ
 70
     0
  9
$DIMUPT
 70
     0
  9
$DIMDEC
 70
     4
  9
$DIMTDEC
 70
     4
  9
$DIMALTU
 70
     4
  9
$DIMALTTD
 70
     2
  9
$DIMTXSTY
  7
Standard
  9
$DIMAUNIT
 70
     0
  9
$DIMADEC
 70
     0
  9
$DIMALTRND
 40
0.0
  9
$DIMAZIN
 70
     0
  9
$DIMDSEP
 70
    46
  9
$DIMATFIT
 70
     3
  9
$DIMFRAC
 70
     0
  9
$DIMLDRBLK
  1

  9
$DIMLUNIT
 70
     4
  9
$DIMLWD
 70
    -2
  9
$DIMLWE
 70
    -2
  9
$DIMTMOVE
 70
     0
  9
$DIMFXL
 40
1.0
  9
$DIMFXLON
 70
     0
  9
$DIMJOGANG
 40
0.7853981633974483
  9
$DIMTFILL
 70
     0
  9
$DIMTFILLCLR
 70
     0
  9
$DIMARCSYM
 70
     0
  9
$DIMLTYPE
  6

  9
$DIMLTEX1
  6

  9
$DIMLTEX2
  6

  9
$DIMTXTDIRECTION
 70
     0
  9
$LUNITS
 70
     4
  9
$LUPREC
 70
     4
  9
$SKETCHINC
 40
0.1
  9
$FILLETRAD
 40
0.0
  9
$AUNITS
 70
     0
  9
$AUPREC
 70
     0
  9
$MENU
  1
.
  9
$ELEVATION
 40
0.0
  9
$PELEVATION
 40
0.0
  9
$THICKNESS
 40
0.0
  9
$LIMCHECK
 70
     0
  9
$CHAMFERA
 40
0.0
  9
$CHAMFERB
 40
0.0
  9
$CHAMFERC
 40
0.0
  9
$CHAMFERD
 40
0.0
  9
$SKPOLY
 70
     0
  9
$TDCREATE
 40
2458152.681814433
  9
$TDUCREATE
 40
2458152.890147766
  9
$TDUPDATE
 40
2458152.714872952
  9
$TDUUPDATE
 40
2458152.923206285
  9
$TDINDWG
 40
0.0322748611
  9
$TDUSRTIMER
 40
0.0322748611
  9
$USRTIMER
 70
     1
  9
$ANGBASE
 50
0.0
  9
$ANGDIR
 70
     0
  9
$PDMODE
 70
     0
  9
$PDSIZE
 40
0.0
  9
$PLINEWID
 40
0.0
  9
$SPLFRAME
 70
     0
  9
$SPLINETYPE
 70
     6
  9
$SPLINESEGS
 70
     8
  9
$HANDSEED
  5
23F
  9
$SURFTAB1
 70
     6
  9
$SURFTAB2
 70
     6
  9
$SURFTYPE
 70
     6
  9
$SURFU
 70
     6
  9
$SURFV
 70
     6
  9
$UCSBASE
  2

  9
$UCSNAME
  2

  9
$UCSORG
 10
0.0
 20
0.0
 30
0.0
  9
$UCSXDIR
 10
1.0
 20
0.0
 30
0.0
  9
$UCSYDIR
 10
0.0
 20
1.0
 30
0.0
  9
$UCSORTHOREF
  2

  9
$UCSORTHOVIEW
 70
     0
  9
$UCSORGTOP
 10
0.0
 20
0.0
 30
0.0
  9
$UCSORGBOTTOM
 10
0.0
 20
0.0
 30
0.0
  9
$UCSORGLEFT
 10
0.0
 20
0.0
 30
0.0
  9
$UCSORGRIGHT
 10
0.0
 20
0.0
 30
0.0
  9
$UCSORGFRONT
 10
0.0
 20
0.0
 30
0.0
  9
$UCSORGBACK
 10
0.0
 20
0.0
 30
0.0
  9
$PUCSBASE
  2

  9
$PUCSNAME
  2

  9
$PUCSORG
 10
0.0
 20
0.0
 30
0.0
  9
$PUCSXDIR
 10
1.0
 20
0.0
 30
0.0
  9
$PUCSYDIR
 10
0.0
 20
1.0
 30
0.0
  9
$PUCSORTHOREF
  2

  9
$PUCSORTHOVIEW
 70
     0
  9
$PUCSORGTOP
 10
0.0
 20
0.0
 30
0.0
  9
$PUCSORGBOTTOM
 10
0.0
 20
0.0
 30
0.0
  9
$PUCSORGLEFT
 10
0.0
 20
0.0
 30
0.0
  9
$PUCSORGRIGHT
 10
0.0
 20
0.0
 30
0.0
  9
$PUCSORGFRONT
 10
0.0
 20
0.0
 30
0.0
  9
$PUCSORGBACK
 10
0.0
 20
0.0
 30
0.0
  9
$USERI1
 70
     0
  9
$USERI2
 70
     0
  9
$USERI3
 70
     0
  9
$USERI4
 70
     0
  9
$USERI5
 70
     0
  9
$USERR1
 40
0.0
  9
$USERR2
 40
0.0
  9
$USERR3
 40
0.0
  9
$USERR4
 40
0.0
  9
$USERR5
 40
0.0
  9
$WORLDVIEW
 70
     1
  9
$SHADEDGE
 70
     3
  9
$SHADEDIF
 70
    70
  9
$TILEMODE
 70
     1
  9
$MAXACTVP
 70
    64
  9
$PINSBASE
 10
0.0
 20
0.0
 30
0.0
  9
$PLIMCHECK
 70
     0
  9
$PEXTMIN
 10
1.000000000000000E+20
 20
1.000000000000000E+20
 30
1.000000000000000E+20
  9
$PEXTMAX
 10
-1.000000000000000E+20
 20
-1.000000000000000E+20
 30
-1.000000000000000E+20
  9
$PLIMMIN
 10
0.0
 20
0.0
  9
$PLIMMAX
 10
12.0
 20
9.0
  9
$UNITMODE
 70
     0
  9
$VISRETAIN
 70
     1
  9
$PLINEGEN
 70
     0
  9
$PSLTSCALE
 70
     1
  9
$TREEDEPTH
 70
  3020
  9
$CMLSTYLE
  2
Standard
  9
$CMLJUST
 70
     0
  9
$CMLSCALE
 40
1.0
  9
$PROXYGRAPHICS
 70
     1
  9
$MEASUREMENT
 70
     0
  9
$CELWEIGHT
370
    -1
  9
$ENDCAPS
280
     0
  9
$JOINSTYLE
280
     0
  9
$LWDISPLAY
290
     0
  9
$INSUNITS
 70
     1
  9
$HYPERLINKBASE
  1

  9
$STYLESHEET
  1

  9
$XEDIT
290
     1
  9
$CEPSNTYPE
380
     0
  9
$PSTYLEMODE
290
     1
  9
$FINGERPRINTGUID
  2
{4559A8AF-A849-43D6-B9AC-CA60D5159CA9}
  9
$VERSIONGUID
  2
{B9A60898-56E9-47C9-B5EC-0BFE31918732}
  9
$EXTNAMES
290
     1
  9
$PSVPSCALE
 40
0.0
  9
$OLESTARTUP
290
     0
  9
$SORTENTS
280
   127
  9
$INDEXCTL
280
     0
  9
$HIDETEXT
280
     1
  9
$XCLIPFRAME
280
     2
  9
$HALOGAP
280
     0
  9
$OBSCOLOR
 70
   257
  9
$OBSLTYPE
280
     0
  9
$INTERSECTIONDISPLAY
280
     0
  9
$INTERSECTIONCOLOR
 70
   257
  9
$DIMASSOC
280
     2
  9
$PROJECTNAME
  1

  9
$CAMERADISPLAY
290
     0
  9
$LENSLENGTH
 40
50.0
  9
$CAMERAHEIGHT
 40
0.0
  9
$STEPSPERSEC
 40
2.0
  9
$STEPSIZE
 40
6.0
  9
$3DDWFPREC
 40
2.0
  9
$PSOLWIDTH
 40
0.25
  9
$PSOLHEIGHT
 40
4.0
  9
$LOFTANG1
 40
1.570796326794896
  9
$LOFTANG2
 40
1.570796326794896
  9
$LOFTMAG1
 40
0.0
  9
$LOFTMAG2
 40
0.0
  9
$LOFTPARAM
 70
     7
  9
$LOFTNORMALS
280
     1
  9
$LATITUDE
 40
0.0
  9
$LONGITUDE
 40
0.0
  9
$NORTHDIRECTION
 40
0.0
  9
$TIMEZONE
 70
     0
  9
$LIGHTGLYPHDISPLAY
280
     1
  9
$TILEMODELIGHTSYNCH
280
     1
  9
$CMATERIAL
347
11
  9
$SOLIDHIST
280
     0
  9
$SHOWHIST
280
     1
  9
$DWFFRAME
280
     2
  9
$DGNFRAME
280
     0
  9
$REALWORLDSCALE
290
     1
  9
$INTERFERECOLOR
 62
     1
  9
$INTERFEREOBJVS
345
33
  9
$INTERFEREVPVS
346
30
  9
$CSHADOW
280
     0
  9
$SHADOWPLANELOCATION
 40
0.0
  0
ENDSEC
  0
SECTION
  2
CLASSES
  0
CLASS
  1
ACDBDICTIONARYWDFLT
  2
AcDbDictionaryWithDefault
  3
ObjectDBX Classes
 90
        0
 91
        1
280
     0
281
     0
  0
CLASS
  1
MATERIAL
  2
AcDbMaterial
  3
ObjectDBX Classes
 90
     1153
 91
        3
280
     0
281
     0
  0
CLASS
  1
VISUALSTYLE
  2
AcDbVisualStyle
  3
ObjectDBX Classes
 90
     4095
 91
       24
280
     0
281
     0
  0
CLASS
  1
SCALE
  2
AcDbScale
  3
ObjectDBX Classes
 90
     1153
 91
       17
280
     0
281
     0
  0
CLASS
  1
TABLESTYLE
  2
AcDbTableStyle
  3
ObjectDBX Classes
 90
     4095
 91
        1
280
     0
281
     0
  0
CLASS
  1
MLEADERSTYLE
  2
AcDbMLeaderStyle
  3
ACDB_MLEADERSTYLE_CLASS
 90
     4095
 91
        1
280
     0
281
     0
  0
CLASS
  1
ACDBSECTIONVIEWSTYLE
  2
AcDbSectionViewStyle
  3
ObjectDBX Classes
 90
     1025
 91
        1
280
     0
281
     0
  0
CLASS
  1
ACDBDETAILVIEWSTYLE
  2
AcDbDetailViewStyle
  3
ObjectDBX Classes
 90
     1025
 91
        1
280
     0
281
     0
  0
CLASS
  1
RASTERVARIABLES
  2
AcDbRasterVariables
  3
ISM
 90
        0
 91
        1
280
     0
281
     0
  0
CLASS
  1
DICTIONARYVAR
  2
AcDbDictionaryVar
  3
ObjectDBX Classes
 90
        0
 91
        5
280
     0
281
     0
  0
CLASS
  1
SORTENTSTABLE
  2
AcDbSortentsTable
  3
ObjectDBX Classes
 90
        0
 91
        3
280
     0
281
     0
  0
CLASS
  1
CELLSTYLEMAP
  2
AcDbCellStyleMap
  3
ObjectDBX Classes
 90
     1152
 91
        1
280
     0
281
     0
  0
ENDSEC
  0
SECTION
  2
TABLES
  0
TABLE
  2
VPORT
  5
8
330
0
100
AcDbSymbolTable
 70
     1
  0
VPORT
  5
57
330
8
100
AcDbSymbolTableRecord
100
AcDbViewportTableRecord
  2
*Active
 70
     0
 10
0.0
 20
0.0
 11
1.0
 21
1.0
 12
-8.999861664127628
 22
15.79970734422758
 13
0.0
 23
0.0
 14
1.0
 24
1.0
 15
0.0
 25
0.0
 16
0.0
 26
0.0
 36
1.0
 17
0.0
 27
0.0
 37
0.0
 40
29.76724829417648
 41
2.455128205128205
 42
50.0
 43
0.0
 44
0.0
 50
0.0
 51
0.0
 71
     0
 72
  1000
 73
     1
 74
     1
 75
     0
 76
     0
 77
     0
 78
     0
281
     0
 65
     1
110
0.0
120
0.0
130
0.0
111
1.0
121
0.0
131
0.0
112
0.0
122
1.0
132
0.0
 79
     0
146
0.0
348
2F
 60
     3
 61
     5
292
     1
282
     1
141
0.0
142
0.0
 63
   250
421
  3355443
1001
ACAD_NAV_VCDISPLAY
1070
     3
  0
ENDTAB
  0
TABLE
  2
LTYPE
  5
5
330
0
100
AcDbSymbolTable
 70
     2
  0
LTYPE
  5
5B
330
5
100
AcDbSymbolTableRecord
100
AcDbLinetypeTableRecord
  2
ByBlock
 70
     0
  3

 72
    65
 73
     0
 40
0.0
  0
LTYPE
  5
5C
330
5
100
AcDbSymbolTableRecord
100
AcDbLinetypeTableRecord
  2
ByLayer
 70
     0
  3

 72
    65
 73
     0
 40
0.0
  0
LTYPE
  5
5D
330
5
100
AcDbSymbolTableRecord
100
AcDbLinetypeTableRecord
  2
Continuous
 70
     0
  3
Solid line
 72
    65
 73
     0
 40
0.0
  0
ENDTAB
  0
TABLE
  2
LAYER
  5
2
102
{ACAD_XDICTIONARY
360
206
102
}
330
0
100
AcDbSymbolTable
 70
     2
  0
LAYER
  5
54
330
2
100
AcDbSymbolTableRecord
100
AcDbLayerTableRecord
  2
0
 70
     0
 62
     7
  6
Continuous
370
    -3
390
F
347
21
348
0
  0
LAYER
  5
8A
330
2
100
AcDbSymbolTableRecord
100
AcDbLayerTableRecord
  2
4931.410
 70
     0
 62
     7
  6
Continuous
370
     9
390
F
347
21
348
0
  0
ENDTAB
  0
TABLE
  2
STYLE
  5
3
330
0
100
AcDbSymbolTable
 70
     2
  0
STYLE
  5
55
330
3
100
AcDbSymbolTableRecord
100
AcDbTextStyleTableRecord
  2
Standard
 70
     0
 40
0.0
 41
1.0
 50
0.0
 71
     0
 42
0.2
  3
txt
  4

  0
ENDTAB
  0
TABLE
  2
VIEW
  5
6
330
0
100
AcDbSymbolTable
 70
     0
  0
ENDTAB
  0
TABLE
  2
UCS
  5
7
330
0
100
AcDbSymbolTable
 70
     0
  0
ENDTAB
  0
TABLE
  2
APPID
  5
9
330
0
100
AcDbSymbolTable
 70
     6
  0
APPID
  5
56
330
9
100
AcDbSymbolTableRecord
100
AcDbRegAppTableRecord
  2
ACAD
 70
     0
  0
APPID
  5
5E
330
9
100
AcDbSymbolTableRecord
100
AcDbRegAppTableRecord
  2
AcadAnnotative
 70
     0
  0
APPID
  5
78
330
9
100
AcDbSymbolTableRecord
100
AcDbRegAppTableRecord
  2
REVIT
 70
     0
  0
APPID
  5
DB
330
9
100
AcDbSymbolTableRecord
100
AcDbRegAppTableRecord
  2
ACAD_EXEMPT_FROM_CAD_STANDARDS
 70
     0
  0
APPID
  5
DD
330
9
100
AcDbSymbolTableRecord
100
AcDbRegAppTableRecord
  2
AEC_XDATA_BOUND_SPACE
 70
     0
  0
APPID
  5
205
330
9
100
AcDbSymbolTableRecord
100
AcDbRegAppTableRecord
  2
ACAD_NAV_VCDISPLAY
 70
     0
  0
ENDTAB
  0
TABLE
  2
DIMSTYLE
  5
A
330
0
100
AcDbSymbolTable
 70
     3
100
AcDbDimStyleTable
 71
     1
340
58
  0
DIMSTYLE
105
58
330
A
100
AcDbSymbolTableRecord
100
AcDbDimStyleTableRecord
  2
Standard
 70
     0
340
55
  0
ENDTAB
  0
TABLE
  2
BLOCK_RECORD
  5
1
330
0
100
AcDbSymbolTable
 70
     8
  0
BLOCK_RECORD
  5
70
102
{ACAD_XDICTIONARY
360
CA
102
}
330
1
100
AcDbSymbolTableRecord
100
AcDbBlockTableRecord
  2
*Model_Space
340
73
 70
     0
280
     1
281
     0
  0
BLOCK_RECORD
  5
6C
330
1
100
AcDbSymbolTableRecord
100
AcDbBlockTableRecord
  2
*Paper_Space
340
6F
 70
     0
280
     1
281
     0
  0
BLOCK_RECORD
  5
74
330
1
100
AcDbSymbolTableRecord
100
AcDbBlockTableRecord
  2
*Paper_Space0
340
77
 70
     0
280
     1
281
     0
  0
BLOCK_RECORD
  5
11F
330
1
100
AcDbSymbolTableRecord
100
AcDbBlockTableRecord
  2
AMSTD_Beale_4931.410_Front View
340
0
310
2800000020000000200000000100080000000000000400000000000000000000000000000000000000000000000080000080000000808000800000008000800080800000C0C0C000C0DCC000F0CAA6000020400000206000002080000020A0000020C0000020E00000400000004020000040400000406000004080000040A0
310
000040C0000040E00000600000006020000060400000606000006080000060A0000060C0000060E00000800000008020000080400000806000008080000080A0000080C0000080E00000A0000000A0200000A0400000A0600000A0800000A0A00000A0C00000A0E00000C0000000C0200000C0400000C0600000C0800000C0
310
A00000C0C00000C0E00000E0000000E0200000E0400000E0600000E0800000E0A00000E0C00000E0E00040000000400020004000400040006000400080004000A0004000C0004000E00040200000402020004020400040206000402080004020A0004020C0004020E000404000004040200040404000404060004040800040
310
40A0004040C0004040E00040600000406020004060400040606000406080004060A0004060C0004060E00040800000408020004080400040806000408080004080A0004080C0004080E00040A0000040A0200040A0400040A0600040A0800040A0A00040A0C00040A0E00040C0000040C0200040C0400040C0600040C08000
310
40C0A00040C0C00040C0E00040E0000040E0200040E0400040E0600040E0800040E0A00040E0C00040E0E00080000000800020008000400080006000800080008000A0008000C0008000E00080200000802020008020400080206000802080008020A0008020C0008020E00080400000804020008040400080406000804080
310
008040A0008040C0008040E00080600000806020008060400080606000806080008060A0008060C0008060E00080800000808020008080400080806000808080008080A0008080C0008080E00080A0000080A0200080A0400080A0600080A0800080A0A00080A0C00080A0E00080C0000080C0200080C0400080C0600080C0
310
800080C0A00080C0C00080C0E00080E0000080E0200080E0400080E0600080E0800080E0A00080E0C00080E0E000C0000000C0002000C0004000C0006000C0008000C000A000C000C000C000E000C0200000C0202000C0204000C0206000C0208000C020A000C020C000C020E000C0400000C0402000C0404000C0406000C0
310
408000C040A000C040C000C040E000C0600000C0602000C0604000C0606000C0608000C060A000C060C000C060E000C0800000C0802000C0804000C0806000C0808000C080A000C080C000C080E000C0A00000C0A02000C0A04000C0A06000C0A08000C0A0A000C0A0C000C0A0E000C0C00000C0C02000C0C04000C0C06000
310
C0C08000C0C0A000F0FBFF00A4A0A000808080000000FF0000FF000000FFFF00FF000000FF00FF00FFFF0000FFFFFF004949494949494949494949494949494949494949494949494949494949494949494949494949494949494949FDFDFDFDFD494949494949494949494949494949494949494949494949494949FDFDFD
310
FDFD494949494949494949494949494949494949494949494949494949FD4949FD49494949494949494949494949494949494949494949494949494949FD4949FD49494949494949494949494949494949494949494949494949494949FD4949FD49494949494949494949494949494949494949494949494949494949FD49
310
49FD49494949494949494949494949494949494949494949494949494949FD4949FDFDFDFDFD494949494949494949494949494949494949494949494949FD49FDFD49FDFDFD494949494949494949494949494949494949494949494949FD49FDFD49FDFDFD494949494949494949494949494949494949494949494949FD
310
4949FDFDFDFDFD494949494949494949494949494949494949494949494949FD4949FD494949FD494949494949494949494949494949494949494949494949FD4949FD494949FD494949494949494949494949494949494949494949494949FD4949FD494949FD494949494949494949494949494949494949494949494949
310
FD4949FD49494949494949494949494949494949494949494949494949494949FD4949FD49494949494949494949494949494949494949494949494949494949FD4949FD49494949494949494949494949494949494949494949494949494949FDFDFDFD494949494949494949494949494949494949494949494949494949
310
49FD4949FD49494949494949494949494949494949494949494949494949494949FD4949FD49494949494949494949494949494949494949494949494949494949FD4949FD49494949494949494949494949494949494949494949494949494949FDFDFDFD4949494949494949494949494949494949494949494949494949
310
4949FDFDFDFD49494949494949494949494949494949494949494949494949494949FD4949FD49494949494949494949494949494949494949494949494949494949FD4949FD49494949494949494949494949494949494949494949494949494949FDFDFDFD49494949494949494949494949494949494949494949494949
310
494949FD4949FD49494949494949494949494949494949494949494949494949494949FD4949FD49494949494949494949494949494949494949494949494949494949FDFD49FD4949494949494949494949494949494949494949494949494949494949FDFDFD494949494949494949494949494949494949494949494949
310
4949494949FDFD49494949494949494949494949494949494949494949494949494949494949494949494949494949494949494949494949
102
{BLKREFS
331
14D
102
}
 70
     1
280
     1
281
     0
  0
BLOCK_RECORD
  5
14E
330
1
100
AcDbSymbolTableRecord
100
AcDbBlockTableRecord
  2
AMSTD_Beale_4931.410_Side View
340
0
310
2800000020000000200000000100080000000000000400000000000000000000000000000000000000000000000080000080000000808000800000008000800080800000C0C0C000C0DCC000F0CAA6000020400000206000002080000020A0000020C0000020E00000400000004020000040400000406000004080000040A0
310
000040C0000040E00000600000006020000060400000606000006080000060A0000060C0000060E00000800000008020000080400000806000008080000080A0000080C0000080E00000A0000000A0200000A0400000A0600000A0800000A0A00000A0C00000A0E00000C0000000C0200000C0400000C0600000C0800000C0
310
A00000C0C00000C0E00000E0000000E0200000E0400000E0600000E0800000E0A00000E0C00000E0E00040000000400020004000400040006000400080004000A0004000C0004000E00040200000402020004020400040206000402080004020A0004020C0004020E000404000004040200040404000404060004040800040
310
40A0004040C0004040E00040600000406020004060400040606000406080004060A0004060C0004060E00040800000408020004080400040806000408080004080A0004080C0004080E00040A0000040A0200040A0400040A0600040A0800040A0A00040A0C00040A0E00040C0000040C0200040C0400040C0600040C08000
310
40C0A00040C0C00040C0E00040E0000040E0200040E0400040E0600040E0800040E0A00040E0C00040E0E00080000000800020008000400080006000800080008000A0008000C0008000E00080200000802020008020400080206000802080008020A0008020C0008020E00080400000804020008040400080406000804080
310
008040A0008040C0008040E00080600000806020008060400080606000806080008060A0008060C0008060E00080800000808020008080400080806000808080008080A0008080C0008080E00080A0000080A0200080A0400080A0600080A0800080A0A00080A0C00080A0E00080C0000080C0200080C0400080C0600080C0
310
800080C0A00080C0C00080C0E00080E0000080E0200080E0400080E0600080E0800080E0A00080E0C00080E0E000C0000000C0002000C0004000C0006000C0008000C000A000C000C000C000E000C0200000C0202000C0204000C0206000C0208000C020A000C020C000C020E000C0400000C0402000C0404000C0406000C0
310
408000C040A000C040C000C040E000C0600000C0602000C0604000C0606000C0608000C060A000C060C000C060E000C0800000C0802000C0804000C0806000C0808000C080A000C080C000C080E000C0A00000C0A02000C0A04000C0A06000C0A08000C0A0A000C0A0C000C0A0E000C0C00000C0C02000C0C04000C0C06000
310
C0C08000C0C0A000F0FBFF00A4A0A000808080000000FF0000FF000000FFFF00FF000000FF00FF00FFFF0000FFFFFF0049494949494949494949494949494949494949494949494949494949494949494949494949494949FDFDFDFDFD494949494949494949494949494949494949494949494949494949FDFDFDFDFD4949
310
49494949494949494949494949494949494949494949494949FD49FD49FD494949494949494949494949494949494949494949494949494949FD49FD49FD494949494949494949494949494949494949494949494949494949FD49FD49FD494949494949494949494949494949494949494949494949494949FD49FD49FD49
310
4949494949494949494949494949494949494949494949494949FD49FD49FD494949494949494949494949494949494949494949494949494949FD49FD49FD494949494949494949494949494949494949494949494949494949FD49FD49FD494949494949494949494949494949494949494949494949494949FD49FD49FD
310
494949494949494949494949494949494949494949494949494949FD49FD49FD494949494949494949494949494949494949494949494949494949FD49FD49FD494949494949494949494949494949494949494949494949494949FDFDFD49FD4949494949494949494949494949494949494949494949494949494949FD49
310
FD4949494949494949494949494949494949494949494949494949494949FD49FD4949494949494949494949494949494949494949494949494949494949FD49FD4949494949494949494949494949494949494949494949494949494949FDFDFD4949494949494949494949494949494949494949494949494949494949FD
310
49FD4949494949494949494949494949494949494949494949494949494949FD49FD4949494949494949494949494949494949494949494949494949494949FD49FD4949494949494949494949494949494949494949494949494949494949FD49FD49494949494949FDFD4949494949494949494949494949494949494949
310
FD49FD49494949494949FD49FDFD494949494949494949494949494949494949FD49FD49494949494949FD4949FD494949494949494949494949494949494949FD49FD494949494949FDFD49FD49494949494949494949494949494949494949FD49FDFD4949494949FDFDFDFD494949494949494949494949494949494949
310
49FD4949FDFD494949FDFD49FDFD49494949494949494949494949494949494949FDFD4949FDFDFDFDFD4949FD494949494949494949494949494949494949494949FDFD494949494949FDFD4949494949494949494949494949494949494949494949FDFDFDFD49FDFDFD4949494949494949494949494949494949494949
310
49494949494949FDFDFD49494949494949494949494949494949494949494949494949494949494949494949494949494949494949494949
102
{BLKREFS
331
210
102
}
 70
     1
280
     1
281
     0
  0
BLOCK_RECORD
  5
211
330
1
100
AcDbSymbolTableRecord
100
AcDbBlockTableRecord
  2
AMSTD_Beale_4931.410_Plan View
340
0
310
2800000020000000200000000100080000000000000400000000000000000000000000000000000000000000000080000080000000808000800000008000800080800000C0C0C000C0DCC000F0CAA6000020400000206000002080000020A0000020C0000020E00000400000004020000040400000406000004080000040A0
310
000040C0000040E00000600000006020000060400000606000006080000060A0000060C0000060E00000800000008020000080400000806000008080000080A0000080C0000080E00000A0000000A0200000A0400000A0600000A0800000A0A00000A0C00000A0E00000C0000000C0200000C0400000C0600000C0800000C0
310
A00000C0C00000C0E00000E0000000E0200000E0400000E0600000E0800000E0A00000E0C00000E0E00040000000400020004000400040006000400080004000A0004000C0004000E00040200000402020004020400040206000402080004020A0004020C0004020E000404000004040200040404000404060004040800040
310
40A0004040C0004040E00040600000406020004060400040606000406080004060A0004060C0004060E00040800000408020004080400040806000408080004080A0004080C0004080E00040A0000040A0200040A0400040A0600040A0800040A0A00040A0C00040A0E00040C0000040C0200040C0400040C0600040C08000
310
40C0A00040C0C00040C0E00040E0000040E0200040E0400040E0600040E0800040E0A00040E0C00040E0E00080000000800020008000400080006000800080008000A0008000C0008000E00080200000802020008020400080206000802080008020A0008020C0008020E00080400000804020008040400080406000804080
310
008040A0008040C0008040E00080600000806020008060400080606000806080008060A0008060C0008060E00080800000808020008080400080806000808080008080A0008080C0008080E00080A0000080A0200080A0400080A0600080A0800080A0A00080A0C00080A0E00080C0000080C0200080C0400080C0600080C0
310
800080C0A00080C0C00080C0E00080E0000080E0200080E0400080E0600080E0800080E0A00080E0C00080E0E000C0000000C0002000C0004000C0006000C0008000C000A000C000C000C000E000C0200000C0202000C0204000C0206000C0208000C020A000C020C000C020E000C0400000C0402000C0404000C0406000C0
310
408000C040A000C040C000C040E000C0600000C0602000C0604000C0606000C0608000C060A000C060C000C060E000C0800000C0802000C0804000C0806000C0808000C080A000C080C000C080E000C0A00000C0A02000C0A04000C0A06000C0A08000C0A0A000C0A0C000C0A0E000C0C00000C0C02000C0C04000C0C06000
310
C0C08000C0C0A000F0FBFF00A4A0A000808080000000FF0000FF000000FFFF00FF000000FF00FF00FFFF0000FFFFFF004949494949494949494949494949494949494949494949494949494949494949494949494949494949494949FDFD49494949494949494949494949494949494949494949494949494949FDFD49FDFD
310
494949494949494949494949494949494949494949494949494949FDFDFDFDFDFD4949494949494949494949494949494949494949494949494949FDFD4949FDFD4949494949494949494949494949494949494949494949494949FD49494949FD4949494949494949494949494949494949494949494949494949FD494949
310
49FD4949494949494949494949494949494949494949494949494949FD49494949FD4949494949494949494949494949494949494949494949494949FD49494949FD4949494949494949494949494949494949494949494949494949FD49494949FD4949494949494949494949494949494949494949494949494949FD4949
310
4949FD4949494949494949494949494949494949494949494949494949FD49494949FD4949494949494949494949494949494949494949494949494949FD49494949FD4949494949494949494949494949494949494949494949494949FD49494949FD4949494949494949494949494949494949494949494949494949FD49
310
494949FD4949494949494949494949494949494949494949494949494949FD49494949FD4949494949494949494949494949494949494949494949494949FD49494949FD4949494949494949494949494949494949494949494949494949FD49494949FD4949494949494949494949494949494949494949494949494949FD
310
49494949FD4949494949494949494949494949494949494949494949494949FD49494949FD4949494949494949494949494949494949494949494949494949FD49494949FD4949494949494949494949494949494949494949494949494949FD49494949FD4949494949494949494949494949494949494949494949494949
310
FD49494949FDFDFDFDFDFDFDFDFD4949494949494949494949494949494949FDFD49494949FD494949FD4949FDFD49494949494949494949494949494949FDFDFD49494949FD494949FD4949FDFD49494949494949494949494949494949FD49FD49494949FD494949FD4949FDFD49494949494949494949494949494949FD
310
49FDFD4949FD49494949FD4949FDFD49494949494949494949494949494949FDFD49FDFDFDFDFDFDFDFDFDFDFDFDFD4949494949494949494949494949494949FD49FD4949FDFDFD49494949494949494949494949494949494949494949494949FDFD49FDFDFD494949494949494949494949494949494949494949494949
310
49494949FDFD4949494949494949494949494949494949494949494949494949494949494949494949494949494949494949494949494949
102
{BLKREFS
331
236
102
}
 70
     1
280
     1
281
     0
  0
ENDTAB
  0
ENDSEC
  0
SECTION
  2
BLOCKS
  0
BLOCK
  5
71
330
70
100
AcDbEntity
  8
0
100
AcDbBlockBegin
  2
*Model_Space
 70
     0
 10
0.0
 20
0.0
 30
0.0
  3
*Model_Space
  1

  0
ENDBLK
  5
72
330
70
100
AcDbEntity
  8
0
100
AcDbBlockEnd
  0
BLOCK
  5
6D
330
6C
100
AcDbEntity
 67
     1
  8
0
100
AcDbBlockBegin
  2
*Paper_Space
 70
     0
 10
0.0
 20
0.0
 30
0.0
  3
*Paper_Space
  1

  0
ENDBLK
  5
6E
330
6C
100
AcDbEntity
 67
     1
  8
0
100
AcDbBlockEnd
  0
BLOCK
  5
75
330
74
100
AcDbEntity
 67
     1
  8
0
100
AcDbBlockBegin
  2
*Paper_Space0
 70
     0
 10
0.0
 20
0.0
 30
0.0
  3
*Paper_Space0
  1

  0
ENDBLK
  5
76
330
74
100
AcDbEntity
 67
     1
  8
0
100
AcDbBlockEnd
  0
BLOCK
  5
120
330
11F
100
AcDbEntity
  8
0
100
AcDbBlockBegin
  2
AMSTD_Beale_4931.410_Front View
 70
     0
 10
0.0
 20
0.0
 30
0.0
  3
AMSTD_Beale_4931.410_Front View
  1

  0
LINE
  5
122
330
11F
100
AcDbEntity
  8
4931.410
100
AcDbLine
 10
0.7499902267200023
 20
3.294701322040631
 30
0.0
 11
2.101917342499283
 21
3.294701322040626
 31
0.0
1001
REVIT
1002
{
1070
     2
1000
-2001160
1002
}
  0
LINE
  5
123
330
11F
100
AcDbEntity
  8
4931.410
100
AcDbLine
 10
2.336539480339558
 20
3.294701322040626
 30
0.0
 11
3.125519406047714
 21
3.294701322040623
 31
0.0
1001
REVIT
1002
{
1070
     2
1000
-2001160
1002
}
  0
LINE
  5
124
330
11F
100
AcDbEntity
  8
4931.410
100
AcDbLine
 10
2.819509136545781
 20
4.705298677961886
 30
0.0
 11
2.151558007219805
 21
4.705298677961889
 31
0.0
1001
REVIT
1002
{
1070
     2
1000
-2001160
1002
}
  0
LINE
  5
125
330
11F
100
AcDbEntity
  8
4931.410
100
AcDbLine
 10
2.101917342499288
 20
4.705298677961889
 30
0.0
 11
0.7499902267200173
 21
4.705298677961891
 31
0.0
1001
REVIT
1002
{
1070
     2
1000
-2001160
1002
}
  0
LINE
  5
126
330
11F
100
AcDbEntity
  8
4931.410
100
AcDbLine
 10
0.7499902267199713
 20
0.2500000000000033
 30
0.0
 11
0.7499902267200027
 21
3.294701322040631
 31
0.0
1001
REVIT
1002
{
1070
     2
1000
-2001160
1002
}
  0
LINE
  5
127
330
11F
100
AcDbEntity
  8
4931.410
100
AcDbLine
 10
0.7499902267200173
 20
4.705298677961891
 30
0.0
 11
0.7499902267200596
 21
8.829673196466096
 31
0.0
1001
REVIT
1002
{
1070
     2
1000
-2001160
1002
}
  0
LINE
  5
128
330
11F
100
AcDbEntity
  8
4931.410
100
AcDbLine
 10
0.7499902267200599
 20
8.863327464753469
 30
0.0
 11
0.7499902267201268
 21
15.38025746514292
 31
0.0
1001
REVIT
1002
{
1070
     2
1000
-2001160
1002
}
  0
LINE
  5
129
330
11F
100
AcDbEntity
  8
4931.410
100
AcDbLine
 10
-0.7500097732798745
 20
15.38025746514294
 30
0.0
 11
-0.7500097732799416
 21
8.863327464753462
 31
0.0
1001
REVIT
1002
{
1070
     2
1000
-2001160
1002
}
  0
LINE
  5
12A
330
11F
100
AcDbEntity
  8
4931.410
100
AcDbLine
 10
-0.7500097732799419
 20
8.829673196466135
 30
0.0
 11
-0.7500097732800302
 21
0.249999999999998
 31
0.0
1001
REVIT
1002
{
1070
     2
1000
-2001160
1002
}
  0
LINE
  5
12B
330
11F
100
AcDbEntity
  8
4931.410
100
AcDbLine
 10
-0.7428094906335763
 20
8.863327464753472
 30
0.0
 11
-0.7428094906335767
 21
8.829673196466124
 31
0.0
1001
REVIT
1002
{
1070
     2
1000
-2001160
1002
}
  0
LINE
  5
12C
330
11F
100
AcDbEntity
  8
4931.410
100
AcDbLine
 10
0.7427899440736821
 20
8.829673196466108
 30
0.0
 11
0.7427899440736821
 21
8.863327464753457
 31
0.0
1001
REVIT
1002
{
1070
     2
1000
-2001160
1002
}
  0
LWPOLYLINE
  5
12D
330
11F
100
AcDbEntity
  8
4931.410
100
AcDbPolyline
 90
        9
 70
   128
 43
0.0
 10
2.283507555032547
 20
3.440405339331846
 10
2.260941460117512
 20
3.43144035956359
 10
2.238034912099557
 20
3.423384953933779
 10
2.214824556569044
 20
3.416252009373026
 10
2.191347525143541
 20
3.410052937071016
 10
2.167641376065163
 20
3.404797654221033
 10
2.143744034115393
 20
3.400494568154571
 10
2.119693729943523
 20
3.397150562891388
 10
2.101917342499283
 20
3.395305253289681
1001
REVIT
1002
{
1070
     2
1000
-2001160
1002
}
  0
LWPOLYLINE
  5
12E
330
11F
100
AcDbEntity
  8
4931.410
100
AcDbPolyline
 90
        4
 70
   128
 43
0.0
 10
2.101917342499285
 20
4.604694746712834
 10
2.126055658587404
 20
4.602060131296934
 10
2.150069310080948
 20
4.598462348103605
 10
2.151558007219805
 20
4.598206863931377
1001
REVIT
1002
{
1070
     2
1000
-2001160
1002
}
  0
LINE
  5
12F
330
11F
100
AcDbEntity
  8
4931.410
100
AcDbLine
 10
-0.4383978135121753
 20
11.48973019458774
 30
0.0
 11
-0.4383978135121759
 21
11.43750000000001
 31
0.0
1001
REVIT
1002
{
1070
     2
1000
-2001160
1002
}
  0
LINE
  5
130
330
11F
100
AcDbEntity
  8
4931.410
100
AcDbLine
 10
0.4383782669523139
 20
11.4375
 30
0.0
 11
0.4383782669523145
 21
11.48973019458773
 31
0.0
1001
REVIT
1002
{
1070
     2
1000
-2001160
1002
}
  0
LINE
  5
131
330
11F
100
AcDbEntity
  8
4931.410
100
AcDbLine
 10
3.12551940604773
 20
6.374860650340496
 30
0.0
 11
2.819509136545804
 21
6.374860650340498
 31
0.0
1001
REVIT
1002
{
1070
     2
1000
-2001160
1002
}
  0
LINE
  5
132
330
11F
100
AcDbEntity
  8
4931.410
100
AcDbLine
 10
1.177339783491668
 20
-0.0000000000000011
 30
0.0
 11
1.177339783491668
 21
0.249999999999998
 31
0.0
1001
REVIT
1002
{
1070
     2
1000
-2001160
1002
}
  0
LINE
  5
133
330
11F
100
AcDbEntity
  8
4931.410
100
AcDbLine
 10
-1.177339783491668
 20
0.249999999999998
 30
0.0
 11
-1.177339783491668
 21
-0.0000000000000011
 31
0.0
1001
REVIT
1002
{
1070
     2
1000
-2001160
1002
}
  0
LWPOLYLINE
  5
134
330
11F
100
AcDbEntity
  8
4931.410
100
AcDbPolyline
 90
       41
 70
   128
 43
0.0
 10
-0.0000097732798687
 20
16.13025746514293
 10
0.0299822273601071
 20
16.12965754513867
 10
0.0599262471970111
 20
16.1278587448699
 10
0.089774382186821
 20
16.12486394203333
 10
0.1194788816808161
 20
16.12067792767465
 10
0.1489922248164276
 20
16.11530739852387
 10
0.1782671965404826
 20
16.10876094628196
 10
0.2072569631432168
 20
16.10104904387601
 10
0.2359151471822198
 20
16.09218402870476
 10
0.264195901676449
 20
16.08218008290139
 10
0.2920539834516193
 20
16.0710532106451
 10
0.3194448255196312
 20
16.0588212125579
 10
0.3463246083762435
 20
16.04550365722739
 10
0.3726503301029338
 20
16.03112184990117
 10
0.3983798751607939
 20
16.01569879840299
 10
0.423472081766408
 20
15.99925917632519
 10
0.447886807741925
 20
15.98182928355615
 10
0.4715849947339826
 20
15.96343700420613
 10
0.4945287306987359
 20
15.9441117619986
 10
0.5166813105530443
 20
15.92388447319861
 10
0.5380072948947729
 20
15.9027874971533
 10
0.5584725666982751
 20
15.88085458452391
 10
0.5780443858943572
 20
15.85812082329186
 10
0.5966914417474046
 20
15.83462258262553
 10
0.6143839029458786
 20
15.81039745469727
 10
0.6310934653260521
 20
15.78548419454403
 10
0.6467933971526331
 20
15.75992265806751
 10
0.6614585818838399
 20
15.73375373827323
 10
0.6750655583525082
 20
15.70701929985046
 10
0.6875925582989541
 20
15.67976211219764
 10
0.6990195411955489
 20
15.65202578100044
 10
0.7093282263072829
 20
15.62385467847201
 10
0.7185021219370471
 20
15.59529387236689
 10
0.7265265518088274
 20
15.5663890538822
 10
0.7333886785466153
 20
15.53718646456149
 10
0.7390775242114728
 20
15.50773282231811
 10
0.7435839878638926
 20
15.47807524669654
 10
0.7469008601233575
 20
15.44826118349116
 10
0.7490228347018144
 20
15.41833832884311
 10
0.7499465168926017
 20
15.38835455293663
 10
0.7499902267201268
 20
15.38025746514293
1001
REVIT
1002
{
1070
     2
1000
-2001160
1002
}
  0
LWPOLYLINE
  5
135
330
11F
100
AcDbEntity
  8
4931.410
100
AcDbPolyline
 90
       41
 70
   128
 43
0.0
 10
-0.7500097732798745
 20
15.38025746514294
 10
-0.749409853275608
 20
15.41024946578291
 10
-0.7476110530068389
 20
15.44019348561981
 10
-0.7446162501702738
 20
15.47004162060962
 10
-0.740430235811594
 20
15.49974612010362
 10
-0.735059706660805
 20
15.52925946323923
 10
-0.7285132544188956
 20
15.55853443496329
 10
-0.7208013520129515
 20
15.58752420156602
 10
-0.7119363368417038
 20
15.61618238560503
 10
-0.7019323910383241
 20
15.64446314009926
 10
-0.6908055187820365
 20
15.67232122187443
 10
-0.6785735206948452
 20
15.69971206394243
 10
-0.6652559653643354
 20
15.72659184679905
 10
-0.6508741580381095
 20
15.75291756852574
 10
-0.6354511065399341
 20
15.7786471135836
 10
-0.6190114844621305
 20
15.80373932018921
 10
-0.601581591693091
 20
15.82815404616473
 10
-0.5831893123430674
 20
15.85185223315679
 10
-0.5638640701355424
 20
15.87479596912154
 10
-0.5436367813355499
 20
15.89694854897585
 10
-0.5225398052902449
 20
15.91827453331758
 10
-0.5006068926608517
 20
15.93873980512108
 10
-0.4778731314288057
 20
15.95831162431716
 10
-0.4543748907624673
 20
15.97695868017021
 10
-0.4301497628342128
 20
15.99465114136869
 10
-0.4052365026809747
 20
16.01136070374886
 10
-0.3796749662044538
 20
16.02706063557544
 10
-0.3535060464101749
 20
16.04172582030665
 10
-0.3267716079874036
 20
16.05533279677532
 10
-0.2995144203345742
 20
16.06785979672176
 10
-0.2717780891373746
 20
16.07928677961836
 10
-0.2436069866089515
 20
16.08959546473009
 10
-0.2150461805038359
 20
16.09876936035985
 10
-0.1861413620191487
 20
16.10679379023164
 10
-0.1569387726984336
 20
16.11365591696942
 10
-0.1274851304550496
 20
16.11934476263428
 10
-0.0978275548334778
 20
16.1238512262867
 10
-0.0680134916281011
 20
16.12716809854616
 10
-0.0380906369800529
 20
16.12929007312462
 10
-0.0081068610735692
 20
16.13021375531541
 10
-0.0000097732798687
 20
16.13025746514293
1001
REVIT
1002
{
1070
     2
1000
-2001160
1002
}
  0
LINE
  5
136
330
11F
100
AcDbEntity
  8
4931.410
100
AcDbLine
 10
3.125519406047726
 20
6.374860650340488
 30
0.0
 11
3.12551940604771
 21
3.294701322040621
 31
0.0
1001
REVIT
1002
{
1070
     2
1000
-2001160
1002
}
  0
LINE
  5
137
330
11F
100
AcDbEntity
  8
4931.410
100
AcDbLine
 10
2.151558007219803
 20
4.705298677961883
 30
0.0
 11
2.151558007219801
 21
4.191435851860116
 31
0.0
1001
REVIT
1002
{
1070
     2
1000
-2001160
1002
}
  0
SPLINE
  5
138
330
11F
100
AcDbEntity
  8
4931.410
100
AcDbSpline
210
0.0
220
0.0
230
1.0
 70
     8
 71
     3
 72
    16
 73
    12
 74
     0
 42
0.000000001
 43
0.0000000001
 40
0.0
 40
0.0
 40
0.0
 40
0.0
 40
0.2
 40
0.4
 40
0.55
 40
0.5875
 40
0.625
 40
0.7
 40
0.775
 40
0.85
 40
1.0
 40
1.0
 40
1.0
 40
1.0
 10
2.151558007219802
 20
4.191435851860115
 30
0.0
 10
2.151530047518178
 20
4.136310788533521
 30
0.0
 10
2.155801558714199
 20
4.02264083675152
 30
0.0
 10
2.173989853886821
 20
3.865812575612166
 30
0.0
 10
2.193629581257447
 20
3.76129483426847
 30
0.0
 10
2.206270872928709
 20
3.703490863205747
 30
0.0
 10
2.214864025065545
 20
3.665797937131037
 30
0.0
 10
2.226631972048864
 20
3.62046397357708
 30
0.0
 10
2.241257472249964
 20
3.569156671746812
 30
0.0
 10
2.260209417723628
 20
3.505232459081307
 30
0.0
 10
2.274704685721727
 20
3.463027171880294
 30
0.0
 10
2.284433554361008
 20
3.437861177086451
 30
0.0
1001
REVIT
1002
{
1070
     2
1000
-2001160
1002
}
  0
LWPOLYLINE
  5
139
330
11F
100
AcDbEntity
  8
4931.410
100
AcDbPolyline
 90
        2
 70
   128
 43
0.0
 10
2.28443355436101
 20
3.437861177086447
 10
2.336539480339556
 20
3.294701322040623
1001
REVIT
1002
{
1070
     2
1000
-2001160
1002
}
  0
LINE
  5
13A
330
11F
100
AcDbEntity
  8
4931.410
100
AcDbLine
 10
2.101917342499281
 20
3.294701322040625
 30
0.0
 11
2.101917342499286
 21
4.705298677961883
 31
0.0
1001
REVIT
1002
{
1070
     2
1000
-2001160
1002
}
  0
SPLINE
  5
13B
330
11F
100
AcDbEntity
  8
4931.410
100
AcDbSpline
210
0.0
220
0.0
230
1.0
 70
     8
 71
     3
 72
    73
 73
    69
 74
     0
 42
0.000000001
 43
0.0000000001
 40
0.0
 40
0.0
 40
0.0
 40
0.0
 40
0.0555555555555556
 40
0.0833333333333333
 40
0.1111111111111111
 40
0.1388888888888889
 40
0.1666666666666666
 40
0.1944444444444444
 40
0.2083333333333333
 40
0.2152777777777778
 40
0.2222222222222222
 40
0.2291666666666666
 40
0.2361111111111111
 40
0.25
 40
0.2777777777777778
 40
0.2916666666666667
 40
0.3055555555555556
 40
0.3194444444444444
 40
0.3263888888888888
 40
0.3298611111111111
 40
0.3333333333333333
 40
0.3368055555555556
 40
0.3402777777777778
 40
0.3472222222222222
 40
0.3611111111111111
 40
0.375
 40
0.3888888888888888
 40
0.4166666666666666
 40
0.4305555555555556
 40
0.4375
 40
0.4444444444444445
 40
0.4513888888888889
 40
0.4583333333333333
 40
0.4722222222222223
 40
0.5
 40
0.5277777777777778
 40
0.5416666666666668
 40
0.5486111111111112
 40
0.5555555555555556
 40
0.5625
 40
0.5694444444444445
 40
0.5833333333333334
 40
0.6111111111111112
 40
0.625
 40
0.6388888888888889
 40
0.6527777777777777
 40
0.6597222222222222
 40
0.6631944444444445
 40
0.6666666666666666
 40
0.6701388888888889
 40
0.6736111111111112
 40
0.6805555555555556
 40
0.6944444444444445
 40
0.7083333333333333
 40
0.7222222222222223
 40
0.75
 40
0.7638888888888889
 40
0.7708333333333333
 40
0.7777777777777778
 40
0.7847222222222224
 40
0.7916666666666668
 40
0.8055555555555555
 40
0.8333333333333332
 40
0.861111111111111
 40
0.8888888888888889
 40
0.9166666666666666
 40
0.9444444444444444
 40
1.0
 40
1.0
 40
1.0
 40
1.0
 10
0.7499902267200157
 20
4.705298677961888
 30
0.0
 10
0.7480235149495572
 20
4.705298677961887
 30
0.0
 10
0.7406571004411882
 20
4.698326969538317
 30
0.0
 10
0.721815189181857
 20
4.676996480965267
 30
0.0
 10
0.703548406198893
 20
4.655504774797133
 30
0.0
 10
0.679647621334981
 20
4.629128727068759
 30
0.0
 10
0.6503875305970894
 20
4.598452524942317
 30
0.0
 10
0.6233560487597434
 20
4.569680638165452
 30
0.0
 10
0.6037828554840985
 20
4.548033436182127
 30
0.0
 10
0.592512051297068
 20
4.535259387669849
 30
0.0
 10
0.5840895906237379
 20
4.52547121626036
 30
0.0
 10
0.5755344939703538
 20
4.515525863267792
 30
0.0
 10
0.5637343483331048
 20
4.502116008815814
 30
0.0
 10
0.5423167967557188
 20
4.478212866248374
 30
0.0
 10
0.5164833800331689
 20
4.449872760810832
 30
0.0
 10
0.4902368615913183
 20
4.420305377643964
 30
0.0
 10
0.4705763459796767
 20
4.397441242546753
 30
0.0
 10
0.4544036664488925
 20
4.377746100231531
 30
0.0
 10
0.4433017259929667
 20
4.363579849589976
 30
0.0
 10
0.4370252661802247
 20
4.355372494524158
 30
0.0
 10
0.4323821452554615
 20
4.349152398995793
 30
0.0
 10
0.4276969423010464
 20
4.342893924718358
 30
0.0
 10
0.421264260823244
 20
4.334533510546179
 30
0.0
 10
0.4096579121565163
 20
4.319832817569262
 30
0.0
 10
0.3922862131321157
 20
4.298615754197099
 30
0.0
 10
0.3710023181842253
 20
4.272704130357686
 30
0.0
 10
0.3431206648372724
 20
4.237404643198997
 30
0.0
 10
0.3176046569060269
 20
4.200735593392614
 30
0.0
 10
0.3002169501363284
 20
4.167005519821088
 30
0.0
 10
0.2920690248926863
 20
4.147186576008744
 30
0.0
 10
0.2870370171956293
 20
4.132056610758109
 30
0.0
 10
0.2828445195764035
 20
4.116551317822031
 30
0.0
 10
0.2779186584453642
 20
4.095321579641509
 30
0.0
 10
0.2713326130744726
 20
4.056976537118717
 30
0.0
 10
0.2675787056819247
 20
3.999853252828427
 30
0.0
 10
0.2713998221606443
 20
3.942739568222331
 30
0.0
 10
0.278016961454955
 20
3.904410828355061
 30
0.0
 10
0.2829538048164266
 20
3.883193150390778
 30
0.0
 10
0.2871504412785872
 20
3.867697866853243
 30
0.0
 10
0.2921824790686972
 20
3.852580363635382
 30
0.0
 10
0.3003262475088276
 20
3.832782654369619
 30
0.0
 10
0.3176965963826804
 20
3.799098773214818
 30
0.0
 10
0.3431763631022835
 20
3.762495506094339
 30
0.0
 10
0.3710182252333841
 20
3.72725929855039
 30
0.0
 10
0.3922737352560756
 20
3.701390386597026
 30
0.0
 10
0.4096256724761272
 20
3.680202199671499
 30
0.0
 10
0.4212216585794158
 20
3.665516873088275
 30
0.0
 10
0.4276495877433329
 20
3.657163706983629
 30
0.0
 10
0.4323319286083695
 20
3.650909804258058
 30
0.0
 10
0.4369726647867197
 20
3.644693613084742
 30
0.0
 10
0.443246201847717
 20
3.636490917464133
 30
0.0
 10
0.4543439038735868
 20
3.622331258811285
 30
0.0
 10
0.4705127229297216
 20
3.602641592703889
 30
0.0
 10
0.4901715484510044
 20
3.579778988487657
 30
0.0
 10
0.5164189119621833
 20
3.550208571155926
 30
0.0
 10
0.5422566267304032
 20
3.521860153354865
 30
0.0
 10
0.5636787994656757
 20
3.497948731239184
 30
0.0
 10
0.575481577056352
 20
3.484534210016999
 30
0.0
 10
0.5840384316737794
 20
3.474585655335824
 30
0.0
 10
0.5924629144063342
 20
3.464793968021116
 30
0.0
 10
0.6037373876508498
 20
3.452014123267331
 30
0.0
 10
0.6233187778678172
 20
3.43035505498794
 30
0.0
 10
0.6503654154402058
 20
3.401564323875941
 30
0.0
 10
0.6796437930452726
 20
3.370870397059889
 30
0.0
 10
0.7035559615082442
 20
3.344487229700831
 30
0.0
 10
0.7218263438566657
 20
3.322996080555423
 30
0.0
 10
0.7406690876001571
 20
3.30166907652221
 30
0.0
 10
0.7480298605064154
 20
3.294701322040626
 30
0.0
 10
0.7499902267200013
 20
3.294701322040629
 30
0.0
1001
REVIT
1002
{
1070
     2
1000
-2001160
1002
}
  0
LINE
  5
13C
330
11F
100
AcDbEntity
  8
4931.410
100
AcDbLine
 10
2.819509136545777
 20
4.270249061611752
 30
0.0
 11
2.819509136545801
 21
6.374860650340493
 31
0.0
1001
REVIT
1002
{
1070
     2
1000
-2001160
1002
}
  0
LINE
  5
13D
330
11F
100
AcDbEntity
  8
4931.410
100
AcDbLine
 10
0.7499902267200587
 20
8.829673196466087
 30
0.0
 11
-0.7500097732799411
 21
8.829673196466128
 31
0.0
1001
REVIT
1002
{
1070
     2
1000
-2001160
1002
}
  0
LINE
  5
13E
330
11F
100
AcDbEntity
  8
4931.410
100
AcDbLine
 10
-0.7500097732799408
 20
8.863327464753451
 30
0.0
 11
0.7499902267200591
 21
8.86332746475346
 31
0.0
1001
REVIT
1002
{
1070
     2
1000
-2001160
1002
}
  0
ELLIPSE
  5
13F
330
11F
100
AcDbEntity
  8
4931.410
100
AcDbEllipse
 10
-0.0000097732799139
 20
11.48659016498892
 30
0.0
 11
-0.75
 21
0.00000000000001
 31
0.0
210
0.0
220
0.0
230
1.0
 40
0.2588190451025222
 41
4.712388980384682
 42
7.853981633974479
1001
REVIT
1002
{
1070
     2
1000
-2001160
1002
}
  0
ELLIPSE
  5
140
330
11F
100
AcDbEntity
  8
4931.410
100
AcDbEllipse
 10
-0.0000097732799139
 20
11.48659016498892
 30
0.0
 11
-0.75
 21
0.0000000000000082
 31
0.0
210
0.0
220
0.0
230
1.0
 40
0.2588190451025222
 41
1.570796326794897
 42
4.712388980384681
1001
REVIT
1002
{
1070
     2
1000
-2001160
1002
}
  0
ELLIPSE
  5
141
330
11F
100
AcDbEntity
  8
4931.410
100
AcDbEllipse
 10
-0.0000097732799304
 20
11.48973019458773
 30
0.0
 11
-0.4383880402322443
 21
0.0000000000000054
 31
0.0
210
0.0
220
0.0
230
1.0
 40
0.2588190451025202
 41
4.712388980384686
 42
6.283185307179588
1001
REVIT
1002
{
1070
     2
1000
-2001160
1002
}
  0
ELLIPSE
  5
142
330
11F
100
AcDbEntity
  8
4931.410
100
AcDbEllipse
 10
-0.0000097732799304
 20
11.48973019458773
 30
0.0
 11
-0.4383880402322443
 21
0.0000000000000035
 31
0.0
210
0.0
220
0.0
230
1.0
 40
0.2588190451025202
 41
3.141592653589788
 42
4.712388980384684
1001
REVIT
1002
{
1070
     2
1000
-2001160
1002
}
  0
LINE
  5
143
330
11F
100
AcDbEntity
  8
4931.410
100
AcDbLine
 10
1.177339783491667
 20
0.0
 30
0.0
 11
-1.177339783491667
 21
0.0
 31
0.0
1001
REVIT
1002
{
1070
     2
1000
-2001160
1002
}
  0
ELLIPSE
  5
144
330
11F
100
AcDbEntity
  8
4931.410
100
AcDbEllipse
 10
-0.0000097732799011
 20
13.33420894638848
 30
0.0
 11
-0.7276426452533208
 21
0.0000000000000089
 31
0.0
210
0.0
220
0.0
230
0.9999999999999998
 40
0.2588190451025208
 41
4.712388980384685
 42
6.176971441647372
1001
REVIT
1002
{
1070
     2
1000
-2001160
1002
}
  0
ELLIPSE
  5
145
330
11F
100
AcDbEntity
  8
4931.410
100
AcDbEllipse
 10
-0.0000097732799011
 20
13.33420894638848
 30
0.0
 11
0.7276426452533208
 21
0.0
 31
0.0
210
0.0
220
0.0
230
1.0
 40
0.2588190451025206
 41
0.1061504337257017
 42
1.570796326794887
1001
REVIT
1002
{
1070
     2
1000
-2001160
1002
}
  0
ELLIPSE
  5
146
330
11F
100
AcDbEntity
  8
4931.410
100
AcDbEllipse
 10
-0.0000097732799309
 20
11.43749999999999
 30
0.0
 11
-0.4383880402322443
 21
0.0000000000000039
 31
0.0
210
0.0
220
0.0
230
1.0
 40
0.2588190451025202
 41
4.712388980384691
 42
7.853981633974481
1001
REVIT
1002
{
1070
     2
1000
-2001160
1002
}
  0
ELLIPSE
  5
147
330
11F
100
AcDbEntity
  8
4931.410
100
AcDbEllipse
 10
-0.0000097732799309
 20
11.43749999999999
 30
0.0
 11
-0.4383880402322443
 21
0.0000000000000054
 31
0.0
210
0.0
220
0.0
230
1.0
 40
0.2588190451025161
 41
1.570796326794895
 42
4.712388980384685
1001
REVIT
1002
{
1070
     2
1000
-2001160
1002
}
  0
LINE
  5
148
330
11F
100
AcDbEntity
  8
4931.410
100
AcDbLine
 10
-1.177339783491667
 20
0.25
 30
0.0
 11
1.177339783491667
 21
0.25
 31
0.0
1001
REVIT
1002
{
1070
     2
1000
-2001160
1002
}
  0
SPLINE
  5
149
330
11F
100
AcDbEntity
  8
4931.410
100
AcDbSpline
210
0.0
220
0.0
230
1.0
 70
     8
 71
     3
 72
    17
 73
    13
 74
     0
 42
0.000000001
 43
0.0000000001
 40
0.0
 40
0.0
 40
0.0
 40
0.0
 40
0.0555555555555556
 40
0.1111111111111111
 40
0.1666666666666666
 40
0.2222222222222222
 40
0.2777777777777778
 40
0.3333333333333333
 40
0.3888888888888888
 40
0.4444444444444445
 40
0.4791666666666666
 40
0.4935520026422045
 40
0.4935520026422045
 40
0.4935520026422045
 40
0.4935520026422045
 10
-0.0000097732798956
 20
13.4973605272569
 30
0.0
 10
0.0453094415096752
 20
13.49724517120148
 30
0.0
 10
0.1335666442258031
 20
13.49514899888349
 30
0.0
 10
0.2571317795921329
 20
13.48667527220908
 30
0.0
 10
0.3769072106070632
 20
13.47207134006539
 30
0.0
 10
0.4847885271404154
 20
13.45271893649489
 30
0.0
 10
0.5771350278258884
 20
13.42855477046229
 30
0.0
 10
0.6530122675486658
 20
13.40082258798685
 30
0.0
 10
0.7078640368501127
 20
13.36992816923237
 30
0.0
 10
0.7383308346596956
 20
13.34108099930058
 30
0.0
 10
0.747770067054943
 20
13.3201865195635
 30
0.0
 10
0.7497023888174063
 20
13.31031677534912
 30
0.0
 10
0.7499902267201054
 20
13.30740135739797
 30
0.0
1001
REVIT
1002
{
1070
     2
1000
-2001160
1002
}
  0
SPLINE
  5
14A
330
11F
100
AcDbEntity
  8
4931.410
100
AcDbSpline
210
0.0
220
0.0
230
1.0
 70
     8
 71
     3
 72
    17
 73
    13
 74
     0
 42
0.000000001
 43
0.0000000001
 40
0.4752939741223454
 40
0.4752939741223454
 40
0.4752939741223454
 40
0.4752939741223454
 40
0.4791666666666666
 40
0.5138888888888889
 40
0.5833333333333333
 40
0.6527777777777777
 40
0.6875
 40
0.7222222222222223
 40
0.7569444444444445
 40
0.7916666666666668
 40
0.861111111111111
 40
1.0
 40
1.0
 40
1.0
 40
1.0
 10
0.7475379923268703
 20
13.3188694320092
 30
0.0
 10
0.7477657810630868
 20
13.31965407009759
 30
0.0
 10
0.7498581116395636
 20
13.32748849145587
 30
0.0
 10
0.7508187061946411
 20
13.34987253736276
 30
0.0
 10
0.7305610830275206
 20
13.38423410361042
 30
0.0
 10
0.6797957647039482
 20
13.41813735373149
 30
0.0
 10
0.6253347554543352
 20
13.44192698192295
 30
0.0
 10
0.5755454534923759
 20
13.45905635645904
 30
0.0
 10
0.5190518532402374
 20
13.47473021538388
 30
0.0
 10
0.438042114417435
 20
13.49275554038567
 30
0.0
 10
0.2697815132077639
 20
13.51911993074724
 30
0.0
 10
0.113304491811018
 20
13.52794837382043
 30
0.0
 10
-0.0000097732798953
 20
13.52823721811496
 30
0.0
1001
REVIT
1002
{
1070
     2
1000
-2001160
1002
}
  0
SPLINE
  5
14B
330
11F
100
AcDbEntity
  8
4931.410
100
AcDbSpline
210
0.0
220
0.0
230
1.0
 70
     8
 71
     3
 72
    16
 73
    12
 74
     0
 42
0.000000001
 43
0.0000000001
 40
0.5087950227553997
 40
0.5087950227553997
 40
0.5087950227553997
 40
0.5087950227553997
 40
0.5138888888888889
 40
0.5833333333333333
 40
0.6527777777777777
 40
0.6875
 40
0.7222222222222223
 40
0.7569444444444445
 40
0.7916666666666668
 40
0.861111111111111
 40
1.0
 40
1.0
 40
1.0
 40
1.0
 10
-0.7500097732798939
 20
13.30891765496202
 30
0.0
 10
-0.7498717833849408
 20
13.3099423897586
 30
0.0
 10
-0.7473762630081957
 20
13.3249028057361
 30
0.0
 10
-0.7305687599545432
 20
13.35339613889349
 30
0.0
 10
-0.6797887427543162
 20
13.38729334682127
 30
0.0
 10
-0.62532103002707
 20
13.4110777413538
 30
0.0
 10
-0.5755267972099262
 20
13.42820269105043
 30
0.0
 10
-0.5190299664846057
 20
13.44387210077544
 30
0.0
 10
-0.4380198692859003
 20
13.46189216326085
 30
0.0
 10
-0.2697678794315944
 20
13.48824685091636
 30
0.0
 10
-0.1133078102538231
 20
13.49707213711835
 30
0.0
 10
-0.0000097732798956
 20
13.4973605272569
 30
0.0
1001
REVIT
1002
{
1070
     2
1000
-2001160
1002
}
  0
SPLINE
  5
14C
330
11F
100
AcDbEntity
  8
4931.410
100
AcDbSpline
210
0.0
220
0.0
230
1.0
 70
     8
 71
     3
 72
    18
 73
    14
 74
     0
 42
0.000000001
 43
0.0000000001
 40
0.0
 40
0.0
 40
0.0
 40
0.0
 40
0.0555555555555556
 40
0.1111111111111111
 40
0.1666666666666666
 40
0.2222222222222222
 40
0.2777777777777778
 40
0.3333333333333333
 40
0.3888888888888888
 40
0.4444444444444445
 40
0.4791666666666666
 40
0.5138888888888889
 40
0.5243174698334892
 40
0.5243174698334892
 40
0.5243174698334892
 40
0.5243174698334892
 10
-0.0000097732798953
 20
13.52823721811496
 30
0.0
 10
-0.0453354793162607
 20
13.52812168039715
 30
0.0
 10
-0.1336041721442864
 20
13.52602452644806
 30
0.0
 10
-0.2571818462006618
 20
13.51754777964768
 30
0.0
 10
-0.37696577742602
 20
13.5029383579795
 30
0.0
 10
-0.4848509425724236
 20
13.48357949537596
 30
0.0
 10
-0.5771930361196822
 20
13.45940846220263
 30
0.0
 10
-0.6530626149716638
 20
13.43166927895661
 30
0.0
 10
-0.7079027525547982
 20
13.40076904455245
 30
0.0
 10
-0.7383591013414743
 20
13.37191708730925
 30
0.0
 10
-0.7496267950902852
 20
13.34695927952605
 30
0.0
 10
-0.75030628770996
 20
13.33041039487322
 30
0.0
 10
-0.7482357996764134
 20
13.3212377959835
 30
0.0
 10
-0.7476256800731501
 20
13.31912777029352
 30
0.0
1001
REVIT
1002
{
1070
     2
1000
-2001160
1002
}
  0
ENDBLK
  5
121
330
11F
100
AcDbEntity
  8
0
100
AcDbBlockEnd
  0
BLOCK
  5
14F
330
14E
100
AcDbEntity
  8
0
100
AcDbBlockBegin
  2
AMSTD_Beale_4931.410_Side View
 70
     0
 10
0.0
 20
0.0
 30
0.0
  3
AMSTD_Beale_4931.410_Side View
  1

  0
LINE
  5
150
330
14E
100
AcDbEntity
  8
4931.410
100
AcDbLine
 10
1.10181155030134
 20
0.249999999999998
 30
0.0
 11
1.101811550301458
 21
8.829673196466117
 31
0.0
1001
REVIT
1002
{
1070
     2
1000
-2001160
1002
}
  0
LINE
  5
151
330
14E
100
AcDbEntity
  8
4931.410
100
AcDbLine
 10
1.101811550301459
 20
8.863327464753442
 30
0.0
 11
1.101811550301509
 21
12.51945058715274
 31
0.0
1001
REVIT
1002
{
1070
     2
1000
-2001160
1002
}
  0
LINE
  5
152
330
14E
100
AcDbEntity
  8
4931.410
100
AcDbLine
 10
-0.3981884496984915
 20
12.51945058715276
 30
0.0
 11
-0.3981884496985421
 21
8.863327464753462
 31
0.0
1001
REVIT
1002
{
1070
     2
1000
-2001160
1002
}
  0
LINE
  5
153
330
14E
100
AcDbEntity
  8
4931.410
100
AcDbLine
 10
-0.3981884496985427
 20
8.82967319646614
 30
0.0
 11
-0.3981884496985738
 21
6.573006922827255
 31
0.0
1001
REVIT
1002
{
1070
     2
1000
-2001160
1002
}
  0
LINE
  5
154
330
14E
100
AcDbEntity
  8
4931.410
100
AcDbLine
 10
7.175542131557982
 20
11.68070444881583
 30
0.0
 11
6.700390045484662
 21
13.45399617536379
 31
0.0
1001
REVIT
1002
{
1070
     2
1000
-2001160
1002
}
  0
LINE
  5
155
330
14E
100
AcDbEntity
  8
4931.410
100
AcDbLine
 10
5.251501306051058
 20
13.06576760771
 30
0.0
 11
5.319347370715462
 21
12.81256264728885
 31
0.0
1001
REVIT
1002
{
1070
     2
1000
-2001160
1002
}
  0
LINE
  5
156
330
14E
100
AcDbEntity
  8
4931.410
100
AcDbLine
 10
5.448756893266723
 20
12.32959973414432
 30
0.0
 11
5.726653392124379
 21
11.29247588116204
 31
0.0
1001
REVIT
1002
{
1070
     2
1000
-2001160
1002
}
  0
LINE
  5
157
330
14E
100
AcDbEntity
  8
4931.410
100
AcDbLine
 10
5.31934737071546
 20
12.81256264728885
 30
0.0
 11
5.209250748707571
 21
12.78306234633244
 31
0.0
1001
REVIT
1002
{
1070
     2
1000
-2001160
1002
}
  0
LINE
  5
158
330
14E
100
AcDbEntity
  8
4931.410
100
AcDbLine
 10
5.338660271258823
 20
12.30009943318791
 30
0.0
 11
5.448756893266723
 21
12.32959973414431
 31
0.0
1001
REVIT
1002
{
1070
     2
1000
-2001160
1002
}
  0
LINE
  5
159
330
14E
100
AcDbEntity
  8
4931.410
100
AcDbLine
 10
5.252718180203485
 20
13.14571323844909
 30
0.0
 11
5.260912000117504
 21
13.11513348622191
 31
0.0
1001
REVIT
1002
{
1070
     2
1000
-2001160
1002
}
  0
LINE
  5
15A
330
14E
100
AcDbEntity
  8
4931.410
100
AcDbLine
 10
6.666681855945547
 20
13.49151954739869
 30
0.0
 11
6.658370829325215
 21
13.52253672100883
 31
0.0
1001
REVIT
1002
{
1070
     2
1000
-2001160
1002
}
  0
LINE
  5
15B
330
14E
100
AcDbEntity
  8
4931.410
100
AcDbLine
 10
-0.3909881670521532
 20
8.863327464753462
 30
0.0
 11
-0.3909881670521529
 21
8.829673196466114
 31
0.0
1001
REVIT
1002
{
1070
     2
1000
-2001160
1002
}
  0
LINE
  5
15C
330
14E
100
AcDbEntity
  8
4931.410
100
AcDbLine
 10
1.094611267655105
 20
8.829673196466117
 30
0.0
 11
1.094611267655105
 21
8.863327464753465
 31
0.0
1001
REVIT
1002
{
1070
     2
1000
-2001160
1002
}
  0
LINE
  5
15D
330
14E
100
AcDbEntity
  8
4931.410
100
AcDbLine
 10
6.039366181844611
 20
11.37626702063046
 30
0.0
 11
6.053361220304915
 21
11.32403682604273
 31
0.0
1001
REVIT
1002
{
1070
     2
1000
-2001160
1002
}
  0
LINE
  5
15E
330
14E
100
AcDbEntity
  8
4931.410
100
AcDbLine
 10
6.900261880298067
 20
11.55096317395728
 30
0.0
 11
6.886266841837765
 21
11.60319336854501
 31
0.0
1001
REVIT
1002
{
1070
     2
1000
-2001160
1002
}
  0
LINE
  5
15F
330
14E
100
AcDbEntity
  8
4931.410
100
AcDbLine
 10
-1.181673699332972
 20
6.422860017770604
 30
0.0
 11
-1.181673699332972
 21
-0.0000000000000011
 31
0.0
1001
REVIT
1002
{
1070
     2
1000
-2001160
1002
}
  0
LINE
  5
160
330
14E
100
AcDbEntity
  8
4931.410
100
AcDbLine
 10
1.173005867650363
 20
-0.0000000000000011
 30
0.0
 11
1.173005867650363
 21
0.249999999999998
 31
0.0
1001
REVIT
1002
{
1070
     2
1000
-2001160
1002
}
  0
LINE
  5
161
330
14E
100
AcDbEntity
  8
4931.410
100
AcDbLine
 10
6.67964537415373
 20
13.52823721811497
 30
0.0
 11
6.63653141668497
 21
13.66607439558051
 31
0.0
1001
REVIT
1002
{
1070
     2
1000
-2001160
1002
}
  0
LINE
  5
162
330
14E
100
AcDbEntity
  8
4931.410
100
AcDbLine
 10
6.63653141668497
 20
13.66607439558051
 30
0.0
 11
6.587939928830592
 21
13.8020772195526
 31
0.0
1001
REVIT
1002
{
1070
     2
1000
-2001160
1002
}
  0
LINE
  5
163
330
14E
100
AcDbEntity
  8
4931.410
100
AcDbLine
 10
6.587939928830592
 20
13.8020772195526
 30
0.0
 11
6.533948646605537
 21
13.93602811452527
 31
0.0
1001
REVIT
1002
{
1070
     2
1000
-2001160
1002
}
  0
LINE
  5
164
330
14E
100
AcDbEntity
  8
4931.410
100
AcDbLine
 10
6.533948646605537
 20
13.93602811452527
 30
0.0
 11
6.474643944543836
 21
14.06771278764123
 31
0.0
1001
REVIT
1002
{
1070
     2
1000
-2001160
1002
}
  0
LINE
  5
165
330
14E
100
AcDbEntity
  8
4931.410
100
AcDbLine
 10
6.474643944543836
 20
14.06771278764123
 30
0.0
 11
6.410120697517799
 21
14.19692057151474
 31
0.0
1001
REVIT
1002
{
1070
     2
1000
-2001160
1002
}
  0
LINE
  5
166
330
14E
100
AcDbEntity
  8
4931.410
100
AcDbLine
 10
6.410120697517799
 20
14.19692057151474
 30
0.0
 11
6.340482128958436
 21
14.32344476125444
 31
0.0
1001
REVIT
1002
{
1070
     2
1000
-2001160
1002
}
  0
LINE
  5
167
330
14E
100
AcDbEntity
  8
4931.410
100
AcDbLine
 10
6.340482128958436
 20
14.32344476125444
 30
0.0
 11
6.265839645720008
 21
14.44708294514715
 31
0.0
1001
REVIT
1002
{
1070
     2
1000
-2001160
1002
}
  0
LINE
  5
168
330
14E
100
AcDbEntity
  8
4931.410
100
AcDbLine
 10
6.265839645720008
 20
14.44708294514715
 30
0.0
 11
6.186312659852816
 21
14.56763732847337
 31
0.0
1001
REVIT
1002
{
1070
     2
1000
-2001160
1002
}
  0
LINE
  5
169
330
14E
100
AcDbEntity
  8
4931.410
100
AcDbLine
 10
6.186312659852816
 20
14.56763732847337
 30
0.0
 11
6.102028397569399
 21
14.68491504993667
 31
0.0
1001
REVIT
1002
{
1070
     2
1000
-2001160
1002
}
  0
LINE
  5
16A
330
14E
100
AcDbEntity
  8
4931.410
100
AcDbLine
 10
6.102028397569399
 20
14.68491504993667
 30
0.0
 11
6.013121695709721
 21
14.79872849020064
 31
0.0
1001
REVIT
1002
{
1070
     2
1000
-2001160
1002
}
  0
LINE
  5
16B
330
14E
100
AcDbEntity
  8
4931.410
100
AcDbLine
 10
6.013121695709721
 20
14.79872849020064
 30
0.0
 11
5.919734786031011
 21
14.90889557203975
 31
0.0
1001
REVIT
1002
{
1070
     2
1000
-2001160
1002
}
  0
LINE
  5
16C
330
14E
100
AcDbEntity
  8
4931.410
100
AcDbLine
 10
5.822017067667272
 20
15.01524005162412
 30
0.0
 11
5.720124868122557
 21
15.11759180047203
 31
0.0
1001
REVIT
1002
{
1070
     2
1000
-2001160
1002
}
  0
LINE
  5
16D
330
14E
100
AcDbEntity
  8
4931.410
100
AcDbLine
 10
5.919734786031011
 20
14.90889557203975
 30
0.0
 11
5.822017067667272
 21
15.01524005162412
 31
0.0
1001
REVIT
1002
{
1070
     2
1000
-2001160
1002
}
  0
LINE
  5
16E
330
14E
100
AcDbEntity
  8
4931.410
100
AcDbLine
 10
5.720124868122557
 20
15.11759180047203
 30
0.0
 11
5.614221193180286
 21
15.21578707761919
 31
0.0
1001
REVIT
1002
{
1070
     2
1000
-2001160
1002
}
  0
LINE
  5
16F
330
14E
100
AcDbEntity
  8
4931.410
100
AcDbLine
 10
5.614221193180286
 20
15.21578707761919
 30
0.0
 11
5.504475466128797
 21
15.30966879156937
 31
0.0
1001
REVIT
1002
{
1070
     2
1000
-2001160
1002
}
  0
LINE
  5
170
330
14E
100
AcDbEntity
  8
4931.410
100
AcDbLine
 10
5.504475466128797
 20
15.30966879156937
 30
0.0
 11
5.39106325672019
 21
15.3990867516073
 31
0.0
1001
REVIT
1002
{
1070
     2
1000
-2001160
1002
}
  0
LINE
  5
171
330
14E
100
AcDbEntity
  8
4931.410
100
AcDbLine
 10
5.39106325672019
 20
15.3990867516073
 30
0.0
 11
5.274166000296212
 21
15.48389790807172
 31
0.0
1001
REVIT
1002
{
1070
     2
1000
-2001160
1002
}
  0
LINE
  5
172
330
14E
100
AcDbEntity
  8
4931.410
100
AcDbLine
 10
5.274166000296212
 20
15.48389790807172
 30
0.0
 11
5.153970707530386
 21
15.56396658120436
 31
0.0
1001
REVIT
1002
{
1070
     2
1000
-2001160
1002
}
  0
LINE
  5
173
330
14E
100
AcDbEntity
  8
4931.410
100
AcDbLine
 10
5.030669665250844
 20
15.63916467820863
 30
0.0
 11
4.904460128822412
 21
15.70937189817073
 31
0.0
1001
REVIT
1002
{
1070
     2
1000
-2001160
1002
}
  0
LINE
  5
174
330
14E
100
AcDbEntity
  8
4931.410
100
AcDbLine
 10
5.153970707530386
 20
15.56396658120436
 30
0.0
 11
5.030669665250844
 21
15.63916467820863
 31
0.0
1001
REVIT
1002
{
1070
     2
1000
-2001160
1002
}
  0
LINE
  5
175
330
14E
100
AcDbEntity
  8
4931.410
100
AcDbLine
 10
4.904460128822412
 20
15.70937189817073
 30
0.0
 11
4.775544006580113
 21
15.77447592451544
 31
0.0
1001
REVIT
1002
{
1070
     2
1000
-2001160
1002
}
  0
LINE
  5
176
330
14E
100
AcDbEntity
  8
4931.410
100
AcDbLine
 10
4.775544006580113
 20
15.77447592451544
 30
0.0
 11
4.644127536818894
 21
15.83437260468875
 31
0.0
1001
REVIT
1002
{
1070
     2
1000
-2001160
1002
}
  0
LINE
  5
177
330
14E
100
AcDbEntity
  8
4931.410
100
AcDbLine
 10
4.644127536818894
 20
15.83437260468875
 30
0.0
 11
4.510420957856353
 21
15.88896611677965
 31
0.0
1001
REVIT
1002
{
1070
     2
1000
-2001160
1002
}
  0
LINE
  5
178
330
14E
100
AcDbEntity
  8
4931.410
100
AcDbLine
 10
4.510420957856353
 20
15.88896611677965
 30
0.0
 11
4.374638171696282
 21
15.93816912281479
 31
0.0
1001
REVIT
1002
{
1070
     2
1000
-2001160
1002
}
  0
LINE
  5
179
330
14E
100
AcDbEntity
  8
4931.410
100
AcDbLine
 10
4.374638171696282
 20
15.93816912281479
 30
0.0
 11
4.23699640183109
 21
15.9819029084806
 31
0.0
1001
REVIT
1002
{
1070
     2
1000
-2001160
1002
}
  0
LINE
  5
17A
330
14E
100
AcDbEntity
  8
4931.410
100
AcDbLine
 10
4.23699640183109
 20
15.9819029084806
 30
0.0
 11
4.097715845730547
 21
16.02009750904938
 31
0.0
1001
REVIT
1002
{
1070
     2
1000
-2001160
1002
}
  0
LINE
  5
17B
330
14E
100
AcDbEntity
  8
4931.410
100
AcDbLine
 10
3.957019322572813
 20
16.05269182130798
 30
0.0
 11
3.815131916781286
 21
16.07963370130985
 31
0.0
1001
REVIT
1002
{
1070
     2
1000
-2001160
1002
}
  0
LINE
  5
17C
330
14E
100
AcDbEntity
  8
4931.410
100
AcDbLine
 10
4.097715845730547
 20
16.02009750904938
 30
0.0
 11
3.957019322572813
 21
16.05269182130798
 31
0.0
1001
REVIT
1002
{
1070
     2
1000
-2001160
1002
}
  0
LINE
  5
17D
330
14E
100
AcDbEntity
  8
4931.410
100
AcDbLine
 10
3.815131916781286
 20
16.07963370130985
 30
0.0
 11
3.672280617937531
 21
16.1008800477943
 31
0.0
1001
REVIT
1002
{
1070
     2
1000
-2001160
1002
}
  0
LINE
  5
17E
330
14E
100
AcDbEntity
  8
4931.410
100
AcDbLine
 10
3.672280617937531
 20
16.1008800477943
 30
0.0
 11
3.528693957646379
 21
16.11639687113926
 31
0.0
1001
REVIT
1002
{
1070
     2
1000
-2001160
1002
}
  0
LINE
  5
17F
330
14E
100
AcDbEntity
  8
4931.410
100
AcDbLine
 10
3.528693957646379
 20
16.11639687113926
 30
0.0
 11
3.384601643934111
 21
16.12615934773747
 31
0.0
1001
REVIT
1002
{
1070
     2
1000
-2001160
1002
}
  0
LINE
  5
180
330
14E
100
AcDbEntity
  8
4931.410
100
AcDbLine
 10
3.384601643934111
 20
16.12615934773747
 30
0.0
 11
3.240234193764611
 21
16.13015185970889
 31
0.0
1001
REVIT
1002
{
1070
     2
1000
-2001160
1002
}
  0
LINE
  5
181
330
14E
100
AcDbEntity
  8
4931.410
100
AcDbLine
 10
3.240234193764611
 20
16.13015185970889
 30
0.0
 11
3.095822564261402
 21
16.12836801988609
 31
0.0
1001
REVIT
1002
{
1070
     2
1000
-2001160
1002
}
  0
LINE
  5
182
330
14E
100
AcDbEntity
  8
4931.410
100
AcDbLine
 10
3.095822564261402
 20
16.12836801988609
 30
0.0
 11
2.95159778322552
 21
16.12081068203224
 31
0.0
1001
REVIT
1002
{
1070
     2
1000
-2001160
1002
}
  0
LINE
  5
183
330
14E
100
AcDbEntity
  8
4931.410
100
AcDbLine
 10
2.95159778322552
 20
16.12081068203224
 30
0.0
 11
2.807790579540311
 21
16.10749193627577
 31
0.0
1001
REVIT
1002
{
1070
     2
1000
-2001160
1002
}
  0
LINE
  5
184
330
14E
100
AcDbEntity
  8
4931.410
100
AcDbLine
 10
2.807790579540311
 20
16.10749193627577
 30
0.0
 11
2.664631014054434
 21
16.08843308976869
 31
0.0
1001
REVIT
1002
{
1070
     2
1000
-2001160
1002
}
  0
LINE
  5
185
330
14E
100
AcDbEntity
  8
4931.410
100
AcDbLine
 10
2.664631014054434
 20
16.08843308976869
 30
0.0
 11
2.52234811153359
 21
16.06366463259976
 31
0.0
1001
REVIT
1002
{
1070
     2
1000
-2001160
1002
}
  0
LINE
  5
186
330
14E
100
AcDbEntity
  8
4931.410
100
AcDbLine
 10
2.52234811153359
 20
16.06366463259976
 30
0.0
 11
2.381169494269746
 21
16.03322618901678
 31
0.0
1001
REVIT
1002
{
1070
     2
1000
-2001160
1002
}
  0
LINE
  5
187
330
14E
100
AcDbEntity
  8
4931.410
100
AcDbLine
 10
2.381169494269746
 20
16.03322618901678
 30
0.0
 11
2.241321017934022
 21
15.99716645403631
 31
0.0
1001
REVIT
1002
{
1070
     2
1000
-2001160
1002
}
  0
LINE
  5
188
330
14E
100
AcDbEntity
  8
4931.410
100
AcDbLine
 10
2.241321017934022
 20
15.99716645403631
 30
0.0
 11
2.10302641025581
 21
15.95554311554197
 31
0.0
1001
REVIT
1002
{
1070
     2
1000
-2001160
1002
}
  0
LINE
  5
189
330
14E
100
AcDbEntity
  8
4931.410
100
AcDbLine
 10
2.10302641025581
 20
15.95554311554197
 30
0.0
 11
1.966506913106114
 21
15.90842276199619
 31
0.0
1001
REVIT
1002
{
1070
     2
1000
-2001160
1002
}
  0
LINE
  5
18A
330
14E
100
AcDbEntity
  8
4931.410
100
AcDbLine
 10
1.966506913106114
 20
15.90842276199619
 30
0.0
 11
1.831980928557769
 21
15.85588077591283
 31
0.0
1001
REVIT
1002
{
1070
     2
1000
-2001160
1002
}
  0
LINE
  5
18B
330
14E
100
AcDbEntity
  8
4931.410
100
AcDbLine
 10
1.831980928557769
 20
15.85588077591283
 30
0.0
 11
1.699663669488708
 21
15.79800121326127
 31
0.0
1001
REVIT
1002
{
1070
     2
1000
-2001160
1002
}
  0
LINE
  5
18C
330
14E
100
AcDbEntity
  8
4931.410
100
AcDbLine
 10
1.699663669488708
 20
15.79800121326127
 30
0.0
 11
1.569766815287263
 21
15.73487666899477
 31
0.0
1001
REVIT
1002
{
1070
     2
1000
-2001160
1002
}
  0
LINE
  5
18D
330
14E
100
AcDbEntity
  8
4931.410
100
AcDbLine
 10
1.569766815287263
 20
15.73487666899477
 30
0.0
 11
1.442498173210305
 21
15.6666081289183
 31
0.0
1001
REVIT
1002
{
1070
     2
1000
-2001160
1002
}
  0
LINE
  5
18E
330
14E
100
AcDbEntity
  8
4931.410
100
AcDbLine
 10
1.442498173210305
 20
15.6666081289183
 30
0.0
 11
1.318061345935963
 21
15.5933048081328
 31
0.0
1001
REVIT
1002
{
1070
     2
1000
-2001160
1002
}
  0
LINE
  5
18F
330
14E
100
AcDbEntity
  8
4931.410
100
AcDbLine
 10
1.318061345935963
 20
15.5933048081328
 30
0.0
 11
1.196655405842768
 21
15.51508397631434
 31
0.0
1001
REVIT
1002
{
1070
     2
1000
-2001160
1002
}
  0
LINE
  5
190
330
14E
100
AcDbEntity
  8
4931.410
100
AcDbLine
 10
1.196655405842768
 20
15.51508397631434
 30
0.0
 11
1.078474576536316
 21
15.43207077010758
 31
0.0
1001
REVIT
1002
{
1070
     2
1000
-2001160
1002
}
  0
LINE
  5
191
330
14E
100
AcDbEntity
  8
4931.410
100
AcDbLine
 10
1.078474576536316
 20
15.43207077010758
 30
0.0
 11
0.9637079221329326
 21
15.34439799293394
 31
0.0
1001
REVIT
1002
{
1070
     2
1000
-2001160
1002
}
  0
LINE
  5
192
330
14E
100
AcDbEntity
  8
4931.410
100
AcDbLine
 10
0.9637079221329326
 20
15.34439799293394
 30
0.0
 11
0.852539044797415
 21
15.25220590253435
 31
0.0
1001
REVIT
1002
{
1070
     2
1000
-2001160
1002
}
  0
LINE
  5
193
330
14E
100
AcDbEntity
  8
4931.410
100
AcDbLine
 10
0.852539044797415
 20
15.25220590253435
 30
0.0
 11
0.7451457910187392
 21
15.15564198658686
 31
0.0
1001
REVIT
1002
{
1070
     2
1000
-2001160
1002
}
  0
LINE
  5
194
330
14E
100
AcDbEntity
  8
4931.410
100
AcDbLine
 10
0.7451457910187392
 20
15.15564198658686
 30
0.0
 11
0.6416999670936101
 21
15.05486072675778
 31
0.0
1001
REVIT
1002
{
1070
     2
1000
-2001160
1002
}
  0
LINE
  5
195
330
14E
100
AcDbEntity
  8
4931.410
100
AcDbLine
 10
0.6416999670936101
 20
15.05486072675778
 30
0.0
 11
0.5423670642730434
 21
14.95002335156399
 31
0.0
1001
REVIT
1002
{
1070
     2
1000
-2001160
1002
}
  0
LINE
  5
196
330
14E
100
AcDbEntity
  8
4931.410
100
AcDbLine
 10
0.5423670642730434
 20
14.95002335156399
 30
0.0
 11
0.4473059940116629
 21
14.84129757844167
 31
0.0
1001
REVIT
1002
{
1070
     2
1000
-2001160
1002
}
  0
LINE
  5
197
330
14E
100
AcDbEntity
  8
4931.410
100
AcDbLine
 10
0.4473059940116629
 20
14.84129757844167
 30
0.0
 11
0.3566688337432735
 21
14.72885734543423
 31
0.0
1001
REVIT
1002
{
1070
     2
1000
-2001160
1002
}
  0
LINE
  5
198
330
14E
100
AcDbEntity
  8
4931.410
100
AcDbLine
 10
0.3566688337432735
 20
14.72885734543423
 30
0.0
 11
0.2706005835894082
 21
14.6128825329285
 31
0.0
1001
REVIT
1002
{
1070
     2
1000
-2001160
1002
}
  0
LINE
  5
199
330
14E
100
AcDbEntity
  8
4931.410
100
AcDbLine
 10
0.2706005835894082
 20
14.6128825329285
 30
0.0
 11
0.189238934390066
 21
14.49355867588454
 31
0.0
1001
REVIT
1002
{
1070
     2
1000
-2001160
1002
}
  0
LINE
  5
19A
330
14E
100
AcDbEntity
  8
4931.410
100
AcDbLine
 10
0.189238934390066
 20
14.49355867588454
 30
0.0
 11
0.1127140474277395
 21
14.3710766670192
 31
0.0
1001
REVIT
1002
{
1070
     2
1000
-2001160
1002
}
  0
LINE
  5
19B
330
14E
100
AcDbEntity
  8
4931.410
100
AcDbLine
 10
0.1127140474277395
 20
14.3710766670192
 30
0.0
 11
0.0411483461971294
 21
14.24563245141858
 31
0.0
1001
REVIT
1002
{
1070
     2
1000
-2001160
1002
}
  0
LINE
  5
19C
330
14E
100
AcDbEntity
  8
4931.410
100
AcDbLine
 10
0.0411483461971294
 20
14.24563245141858
 30
0.0
 11
-0.0253436794463298
 21
14.11742671306762
 31
0.0
1001
REVIT
1002
{
1070
     2
1000
-2001160
1002
}
  0
LINE
  5
19D
330
14E
100
AcDbEntity
  8
4931.410
100
AcDbLine
 10
-0.0253436794463298
 20
14.11742671306762
 30
0.0
 11
-0.0866556564458186
 21
13.98666455379859
 31
0.0
1001
REVIT
1002
{
1070
     2
1000
-2001160
1002
}
  0
LINE
  5
19E
330
14E
100
AcDbEntity
  8
4931.410
100
AcDbLine
 10
-0.0866556564458186
 20
13.98666455379859
 30
0.0
 11
-0.1426894987173274
 21
13.85355516517188
 31
0.0
1001
REVIT
1002
{
1070
     2
1000
-2001160
1002
}
  0
LINE
  5
19F
330
14E
100
AcDbEntity
  8
4931.410
100
AcDbLine
 10
-0.1426894987173274
 20
13.85355516517188
 30
0.0
 11
-0.1933555640664719
 21
13.71831149381413
 31
0.0
1001
REVIT
1002
{
1070
     2
1000
-2001160
1002
}
  0
LINE
  5
1A0
330
14E
100
AcDbEntity
  8
4931.410
100
AcDbLine
 10
-0.1933555640664719
 20
13.71831149381413
 30
0.0
 11
-0.2385727975968757
 21
13.58114990074908
 31
0.0
1001
REVIT
1002
{
1070
     2
1000
-2001160
1002
}
  0
LINE
  5
1A1
330
14E
100
AcDbEntity
  8
4931.410
100
AcDbLine
 10
-0.2385727975968757
 20
13.58114990074908
 30
0.0
 11
-0.2782688613807216
 21
13.44228981526606
 31
0.0
1001
REVIT
1002
{
1070
     2
1000
-2001160
1002
}
  0
LINE
  5
1A2
330
14E
100
AcDbEntity
  8
4931.410
100
AcDbLine
 10
-0.2782688613807216
 20
13.44228981526606
 30
0.0
 11
-0.3123802501839952
 21
13.30195338387992
 31
0.0
1001
REVIT
1002
{
1070
     2
1000
-2001160
1002
}
  0
LINE
  5
1A3
330
14E
100
AcDbEntity
  8
4931.410
100
AcDbLine
 10
-0.3123802501839952
 20
13.30195338387992
 30
0.0
 11
-0.3408523930613214
 21
13.16036511494404
 31
0.0
1001
REVIT
1002
{
1070
     2
1000
-2001160
1002
}
  0
LINE
  5
1A4
330
14E
100
AcDbEntity
  8
4931.410
100
AcDbLine
 10
-0.3408523930613214
 20
13.16036511494404
 30
0.0
 11
-0.3636397406578273
 21
13.01775151948484
 31
0.0
1001
REVIT
1002
{
1070
     2
1000
-2001160
1002
}
  0
LINE
  5
1A5
330
14E
100
AcDbEntity
  8
4931.410
100
AcDbLine
 10
-0.3636397406578273
 20
13.01775151948484
 30
0.0
 11
-0.3807058380784016
 21
12.87434074883243
 31
0.0
1001
REVIT
1002
{
1070
     2
1000
-2001160
1002
}
  0
LINE
  5
1A6
330
14E
100
AcDbEntity
  8
4931.410
100
AcDbLine
 10
-0.3807058380784016
 20
12.87434074883243
 30
0.0
 11
-0.3920233832077449
 21
12.7303622296272
 31
0.0
1001
REVIT
1002
{
1070
     2
1000
-2001160
1002
}
  0
LINE
  5
1A7
330
14E
100
AcDbEntity
  8
4931.410
100
AcDbLine
 10
-0.3920233832077449
 20
12.7303622296272
 30
0.0
 11
-0.3975742703879296
 21
12.5860462967861
 31
0.0
1001
REVIT
1002
{
1070
     2
1000
-2001160
1002
}
  0
LINE
  5
1A8
330
14E
100
AcDbEntity
  8
4931.410
100
AcDbLine
 10
-0.3975742703879296
 20
12.5860462967861
 30
0.0
 11
-0.3981884496984924
 21
12.51945058715275
 31
0.0
1001
REVIT
1002
{
1070
     2
1000
-2001160
1002
}
  0
LINE
  5
1A9
330
14E
100
AcDbEntity
  8
4931.410
100
AcDbLine
 10
6.700390045484662
 20
13.45399617536378
 30
0.0
 11
6.688480689542422
 21
13.49736052725692
 31
0.0
1001
REVIT
1002
{
1070
     2
1000
-2001160
1002
}
  0
LINE
  5
1AA
330
14E
100
AcDbEntity
  8
4931.410
100
AcDbLine
 10
1.101811550301508
 20
12.51945058715274
 30
0.0
 11
1.103499970663175
 21
12.60386034880013
 31
0.0
1001
REVIT
1002
{
1070
     2
1000
-2001160
1002
}
  0
LINE
  5
1AB
330
14E
100
AcDbEntity
  8
4931.410
100
AcDbLine
 10
1.103499970663175
 20
12.60386034880013
 30
0.0
 11
1.108562530635773
 21
12.68813507283535
 31
0.0
1001
REVIT
1002
{
1070
     2
1000
-2001160
1002
}
  0
LINE
  5
1AC
330
14E
100
AcDbEntity
  8
4931.410
100
AcDbLine
 10
1.108562530635773
 20
12.68813507283535
 30
0.0
 11
1.116991131203302
 21
12.77213993767758
 31
0.0
1001
REVIT
1002
{
1070
     2
1000
-2001160
1002
}
  0
LINE
  5
1AD
330
14E
100
AcDbEntity
  8
4931.410
100
AcDbLine
 10
1.116991131203302
 20
12.77213993767758
 30
0.0
 11
1.128772288402857
 21
12.85574055346315
 31
0.0
1001
REVIT
1002
{
1070
     2
1000
-2001160
1002
}
  0
LINE
  5
1AE
330
14E
100
AcDbEntity
  8
4931.410
100
AcDbLine
 10
1.128772288402857
 20
12.85574055346315
 30
0.0
 11
1.143887154896101
 21
12.93880317704066
 31
0.0
1001
REVIT
1002
{
1070
     2
1000
-2001160
1002
}
  0
LINE
  5
1AF
330
14E
100
AcDbEntity
  8
4931.410
100
AcDbLine
 10
1.143887154896101
 20
12.93880317704066
 30
0.0
 11
1.162311550120976
 21
13.02119492593147
 31
0.0
1001
REVIT
1002
{
1070
     2
1000
-2001160
1002
}
  0
LINE
  5
1B0
330
14E
100
AcDbEntity
  8
4931.410
100
AcDbLine
 10
1.162311550120976
 20
13.02119492593147
 30
0.0
 11
1.184015998975451
 21
13.10278399091331
 31
0.0
1001
REVIT
1002
{
1070
     2
1000
-2001160
1002
}
  0
LINE
  5
1B1
330
14E
100
AcDbEntity
  8
4931.410
100
AcDbLine
 10
1.184015998975451
 20
13.10278399091331
 30
0.0
 11
1.208965778971395
 21
13.18343984688696
 31
0.0
1001
REVIT
1002
{
1070
     2
1000
-2001160
1002
}
  0
LINE
  5
1B2
330
14E
100
AcDbEntity
  8
4931.410
100
AcDbLine
 10
1.208965778971395
 20
13.18343984688696
 30
0.0
 11
1.237120975783148
 21
13.26303346168852
 31
0.0
1001
REVIT
1002
{
1070
     2
1000
-2001160
1002
}
  0
LINE
  5
1B3
330
14E
100
AcDbEntity
  8
4931.410
100
AcDbLine
 10
1.237120975783148
 20
13.26303346168852
 30
0.0
 11
1.268436547101935
 21
13.34143750251338
 31
0.0
1001
REVIT
1002
{
1070
     2
1000
-2001160
1002
}
  0
LINE
  5
1B4
330
14E
100
AcDbEntity
  8
4931.410
100
AcDbLine
 10
1.268436547101935
 20
13.34143750251338
 30
0.0
 11
1.302862394693944
 21
13.41852653962152
 31
0.0
1001
REVIT
1002
{
1070
     2
1000
-2001160
1002
}
  0
LINE
  5
1B5
330
14E
100
AcDbEntity
  8
4931.410
100
AcDbLine
 10
1.302862394693944
 20
13.41852653962152
 30
0.0
 11
1.340343444546817
 21
13.49417724699835
 31
0.0
1001
REVIT
1002
{
1070
     2
1000
-2001160
1002
}
  0
LINE
  5
1B6
330
14E
100
AcDbEntity
  8
4931.410
100
AcDbLine
 10
1.340343444546817
 20
13.49417724699835
 30
0.0
 11
1.38081973497632
 21
13.56826859965001
 31
0.0
1001
REVIT
1002
{
1070
     2
1000
-2001160
1002
}
  0
LINE
  5
1B7
330
14E
100
AcDbEntity
  8
4931.410
100
AcDbLine
 10
1.38081973497632
 20
13.56826859965001
 30
0.0
 11
1.424226512552249
 21
13.6406820672176
 31
0.0
1001
REVIT
1002
{
1070
     2
1000
-2001160
1002
}
  0
LINE
  5
1B8
330
14E
100
AcDbEntity
  8
4931.410
100
AcDbLine
 10
1.424226512552249
 20
13.6406820672176
 30
0.0
 11
1.470494335690099
 21
13.71130180360038
 31
0.0
1001
REVIT
1002
{
1070
     2
1000
-2001160
1002
}
  0
LINE
  5
1B9
330
14E
100
AcDbEntity
  8
4931.410
100
AcDbLine
 10
1.470494335690099
 20
13.71130180360038
 30
0.0
 11
1.519549185742793
 21
13.78001483228487
 31
0.0
1001
REVIT
1002
{
1070
     2
1000
-2001160
1002
}
  0
LINE
  5
1BA
330
14E
100
AcDbEntity
  8
4931.410
100
AcDbLine
 10
1.519549185742793
 20
13.78001483228487
 30
0.0
 11
1.571312585414723
 21
13.84671122708318
 31
0.0
1001
REVIT
1002
{
1070
     2
1000
-2001160
1002
}
  0
LINE
  5
1BB
330
14E
100
AcDbEntity
  8
4931.410
100
AcDbLine
 10
1.571312585414723
 20
13.84671122708318
 30
0.0
 11
1.625701724308683
 21
13.91128428799144
 31
0.0
1001
REVIT
1002
{
1070
     2
1000
-2001160
1002
}
  0
LINE
  5
1BC
330
14E
100
AcDbEntity
  8
4931.410
100
AcDbLine
 10
1.625701724308683
 20
13.91128428799144
 30
0.0
 11
1.682629591404841
 21
13.97363071188704
 31
0.0
1001
REVIT
1002
{
1070
     2
1000
-2001160
1002
}
  0
LINE
  5
1BD
330
14E
100
AcDbEntity
  8
4931.410
100
AcDbLine
 10
1.682629591404841
 20
13.97363071188704
 30
0.0
 11
1.742005114259808
 21
14.03365075779161
 31
0.0
1001
REVIT
1002
{
1070
     2
1000
-2001160
1002
}
  0
LINE
  5
1BE
330
14E
100
AcDbEntity
  8
4931.410
100
AcDbLine
 10
1.742005114259808
 20
14.03365075779161
 30
0.0
 11
1.803733304703116
 21
14.09124840643531
 31
0.0
1001
REVIT
1002
{
1070
     2
1000
-2001160
1002
}
  0
LINE
  5
1BF
330
14E
100
AcDbEntity
  8
4931.410
100
AcDbLine
 10
1.803733304703116
 20
14.09124840643531
 30
0.0
 11
1.867715410798036
 21
14.14633151386714
 31
0.0
1001
REVIT
1002
{
1070
     2
1000
-2001160
1002
}
  0
LINE
  5
1C0
330
14E
100
AcDbEntity
  8
4931.410
100
AcDbLine
 10
1.867715410798036
 20
14.14633151386714
 30
0.0
 11
1.933849074823604
 21
14.19881195886565
 31
0.0
1001
REVIT
1002
{
1070
     2
1000
-2001160
1002
}
  0
LINE
  5
1C1
330
14E
100
AcDbEntity
  8
4931.410
100
AcDbLine
 10
1.933849074823604
 20
14.19881195886565
 30
0.0
 11
2.002028497025142
 21
14.24860578391406
 31
0.0
1001
REVIT
1002
{
1070
     2
1000
-2001160
1002
}
  0
LINE
  5
1C2
330
14E
100
AcDbEntity
  8
4931.410
100
AcDbLine
 10
2.002028497025142
 20
14.24860578391406
 30
0.0
 11
2.072144604871294
 21
14.29563332951443
 31
0.0
1001
REVIT
1002
{
1070
     2
1000
-2001160
1002
}
  0
LINE
  5
1C3
330
14E
100
AcDbEntity
  8
4931.410
100
AcDbLine
 10
2.072144604871294
 20
14.29563332951443
 30
0.0
 11
2.144085227546811
 21
14.3398193616258
 31
0.0
1001
REVIT
1002
{
1070
     2
1000
-2001160
1002
}
  0
LINE
  5
1C4
330
14E
100
AcDbEntity
  8
4931.410
100
AcDbLine
 10
2.144085227546811
 20
14.3398193616258
 30
0.0
 11
2.217735275401929
 21
14.38109319202264
 31
0.0
1001
REVIT
1002
{
1070
     2
1000
-2001160
1002
}
  0
LINE
  5
1C5
330
14E
100
AcDbEntity
  8
4931.410
100
AcDbLine
 10
2.217735275401929
 20
14.38109319202264
 30
0.0
 11
2.29297692407125
 21
14.41938879138092
 31
0.0
1001
REVIT
1002
{
1070
     2
1000
-2001160
1002
}
  0
LINE
  5
1C6
330
14E
100
AcDbEntity
  8
4931.410
100
AcDbLine
 10
2.29297692407125
 20
14.41938879138092
 30
0.0
 11
2.369689802967601
 21
14.45464489491098
 31
0.0
1001
REVIT
1002
{
1070
     2
1000
-2001160
1002
}
  0
LINE
  5
1C7
330
14E
100
AcDbEntity
  8
4931.410
100
AcDbLine
 10
2.369689802967601
 20
14.45464489491098
 30
0.0
 11
2.447751187849284
 21
14.48680510036806
 31
0.0
1001
REVIT
1002
{
1070
     2
1000
-2001160
1002
}
  0
LINE
  5
1C8
330
14E
100
AcDbEntity
  8
4931.410
100
AcDbLine
 10
2.447751187849284
 20
14.48680510036806
 30
0.0
 11
2.527036197152702
 21
14.5158179582839
 31
0.0
1001
REVIT
1002
{
1070
     2
1000
-2001160
1002
}
  0
LINE
  5
1C9
330
14E
100
AcDbEntity
  8
4931.410
100
AcDbLine
 10
2.527036197152702
 20
14.5158179582839
 30
0.0
 11
2.607417991776199
 21
14.54163705427493
 31
0.0
1001
REVIT
1002
{
1070
     2
1000
-2001160
1002
}
  0
LINE
  5
1CA
330
14E
100
AcDbEntity
  8
4931.410
100
AcDbLine
 10
2.607417991776199
 20
14.54163705427493
 30
0.0
 11
2.688767977995581
 21
14.56422108329534
 31
0.0
1001
REVIT
1002
{
1070
     2
1000
-2001160
1002
}
  0
LINE
  5
1CB
330
14E
100
AcDbEntity
  8
4931.410
100
AcDbLine
 10
2.688767977995581
 20
14.56422108329534
 30
0.0
 11
2.770956013186633
 21
14.58353391571636
 31
0.0
1001
REVIT
1002
{
1070
     2
1000
-2001160
1002
}
  0
LINE
  5
1CC
330
14E
100
AcDbEntity
  8
4931.410
100
AcDbLine
 10
2.770956013186633
 20
14.58353391571636
 30
0.0
 11
2.853850614025563
 21
14.59954465512596
 31
0.0
1001
REVIT
1002
{
1070
     2
1000
-2001160
1002
}
  0
LINE
  5
1CD
330
14E
100
AcDbEntity
  8
4931.410
100
AcDbLine
 10
2.853850614025563
 20
14.59954465512596
 30
0.0
 11
2.937319166834268
 21
14.61222768775655
 31
0.0
1001
REVIT
1002
{
1070
     2
1000
-2001160
1002
}
  0
LINE
  5
1CE
330
14E
100
AcDbEntity
  8
4931.410
100
AcDbLine
 10
2.937319166834268
 20
14.61222768775655
 30
0.0
 11
3.021228139733927
 21
14.62156272346147
 31
0.0
1001
REVIT
1002
{
1070
     2
1000
-2001160
1002
}
  0
LINE
  5
1CF
330
14E
100
AcDbEntity
  8
4931.410
100
AcDbLine
 10
3.021228139733927
 20
14.62156272346147
 30
0.0
 11
3.105443296267528
 21
14.62753482817497
 31
0.0
1001
REVIT
1002
{
1070
     2
1000
-2001160
1002
}
  0
LINE
  5
1D0
330
14E
100
AcDbEntity
  8
4931.410
100
AcDbLine
 10
3.105443296267528
 20
14.62753482817497
 30
0.0
 11
3.189829910149559
 21
14.6301344478035
 31
0.0
1001
REVIT
1002
{
1070
     2
1000
-2001160
1002
}
  0
LINE
  5
1D1
330
14E
100
AcDbEntity
  8
4931.410
100
AcDbLine
 10
3.189829910149559
 20
14.6301344478035
 30
0.0
 11
3.274252980799327
 21
14.62935742351018
 31
0.0
1001
REVIT
1002
{
1070
     2
1000
-2001160
1002
}
  0
LINE
  5
1D2
330
14E
100
AcDbEntity
  8
4931.410
100
AcDbLine
 10
3.274252980799327
 20
14.62935742351018
 30
0.0
 11
3.358577449313085
 21
14.62520499836816
 31
0.0
1001
REVIT
1002
{
1070
     2
1000
-2001160
1002
}
  0
LINE
  5
1D3
330
14E
100
AcDbEntity
  8
4931.410
100
AcDbLine
 10
3.358577449313085
 20
14.62520499836816
 30
0.0
 11
3.442668414529474
 21
14.61768381537183
 31
0.0
1001
REVIT
1002
{
1070
     2
1000
-2001160
1002
}
  0
LINE
  5
1D4
330
14E
100
AcDbEntity
  8
4931.410
100
AcDbLine
 10
3.442668414529474
 20
14.61768381537183
 30
0.0
 11
3.526391348842594
 21
14.60680590680957
 31
0.0
1001
REVIT
1002
{
1070
     2
1000
-2001160
1002
}
  0
LINE
  5
1D5
330
14E
100
AcDbEntity
  8
4931.410
100
AcDbLine
 10
3.526391348842594
 20
14.60680590680957
 30
0.0
 11
3.609612313417486
 21
14.59258867501458
 31
0.0
1001
REVIT
1002
{
1070
     2
1000
-2001160
1002
}
  0
LINE
  5
1D6
330
14E
100
AcDbEntity
  8
4931.410
100
AcDbLine
 10
3.609612313417486
 20
14.59258867501458
 30
0.0
 11
3.692198172463689
 21
14.57505486452488
 31
0.0
1001
REVIT
1002
{
1070
     2
1000
-2001160
1002
}
  0
LINE
  5
1D7
330
14E
100
AcDbEntity
  8
4931.410
100
AcDbLine
 10
3.692198172463689
 20
14.57505486452488
 30
0.0
 11
3.774016806224107
 21
14.55423252569691
 31
0.0
1001
REVIT
1002
{
1070
     2
1000
-2001160
1002
}
  0
LINE
  5
1D8
330
14E
100
AcDbEntity
  8
4931.410
100
AcDbLine
 10
3.774016806224107
 20
14.55423252569691
 30
0.0
 11
3.854937322338431
 21
14.53015496983094
 31
0.0
1001
REVIT
1002
{
1070
     2
1000
-2001160
1002
}
  0
LINE
  5
1D9
330
14E
100
AcDbEntity
  8
4931.410
100
AcDbLine
 10
3.854937322338431
 20
14.53015496983094
 30
0.0
 11
3.934830265243004
 21
14.50286071588007
 31
0.0
1001
REVIT
1002
{
1070
     2
1000
-2001160
1002
}
  0
LINE
  5
1DA
330
14E
100
AcDbEntity
  8
4931.410
100
AcDbLine
 10
3.934830265243004
 20
14.50286071588007
 30
0.0
 11
4.013567823272098
 21
14.47239342882816
 31
0.0
1001
REVIT
1002
{
1070
     2
1000
-2001160
1002
}
  0
LINE
  5
1DB
330
14E
100
AcDbEntity
  8
4931.410
100
AcDbLine
 10
4.013567823272098
 20
14.47239342882816
 30
0.0
 11
4.091024033129313
 21
14.43880184983517
 31
0.0
1001
REVIT
1002
{
1070
     2
1000
-2001160
1002
}
  0
LINE
  5
1DC
330
14E
100
AcDbEntity
  8
4931.410
100
AcDbLine
 10
4.091024033129313
 20
14.43880184983517
 30
0.0
 11
4.167074981401991
 21
14.40213971826164
 31
0.0
1001
REVIT
1002
{
1070
     2
1000
-2001160
1002
}
  0
LINE
  5
1DD
330
14E
100
AcDbEntity
  8
4931.410
100
AcDbLine
 10
4.167074981401991
 20
14.40213971826164
 30
0.0
 11
4.24159900279623
 21
14.36246568569727
 31
0.0
1001
REVIT
1002
{
1070
     2
1000
-2001160
1002
}
  0
LINE
  5
1DE
330
14E
100
AcDbEntity
  8
4931.410
100
AcDbLine
 10
4.24159900279623
 20
14.36246568569727
 30
0.0
 11
4.314476874775411
 21
14.31984322213081
 31
0.0
1001
REVIT
1002
{
1070
     2
1000
-2001160
1002
}
  0
LINE
  5
1DF
330
14E
100
AcDbEntity
  8
4931.410
100
AcDbLine
 10
4.314476874775411
 20
14.31984322213081
 30
0.0
 11
4.385592008290818
 21
14.27434051441166
 31
0.0
1001
REVIT
1002
{
1070
     2
1000
-2001160
1002
}
  0
LINE
  5
1E0
330
14E
100
AcDbEntity
  8
4931.410
100
AcDbLine
 10
4.385592008290818
 20
14.27434051441166
 30
0.0
 11
4.454830634299245
 21
14.22603035716545
 31
0.0
1001
REVIT
1002
{
1070
     2
1000
-2001160
1002
}
  0
LINE
  5
1E1
330
14E
100
AcDbEntity
  8
4931.410
100
AcDbLine
 10
4.454830634299245
 20
14.22603035716545
 30
0.0
 11
4.522081985769195
 21
14.17499003633816
 31
0.0
1001
REVIT
1002
{
1070
     2
1000
-2001160
1002
}
  0
LINE
  5
1E2
330
14E
100
AcDbEntity
  8
4931.410
100
AcDbLine
 10
4.522081985769195
 20
14.17499003633816
 30
0.0
 11
4.58723847488451
 21
14.12130120555508
 31
0.0
1001
REVIT
1002
{
1070
     2
1000
-2001160
1002
}
  0
LINE
  5
1E3
330
14E
100
AcDbEntity
  8
4931.410
100
AcDbLine
 10
4.58723847488451
 20
14.12130120555508
 30
0.0
 11
4.650195865161912
 21
14.06504975549246
 31
0.0
1001
REVIT
1002
{
1070
     2
1000
-2001160
1002
}
  0
LINE
  5
1E4
330
14E
100
AcDbEntity
  8
4931.410
100
AcDbLine
 10
4.650195865161912
 20
14.06504975549246
 30
0.0
 11
4.710853438207155
 21
14.00632567647075
 31
0.0
1001
REVIT
1002
{
1070
     2
1000
-2001160
1002
}
  0
LINE
  5
1E5
330
14E
100
AcDbEntity
  8
4931.410
100
AcDbLine
 10
4.710853438207155
 20
14.00632567647075
 30
0.0
 11
4.769114154842952
 21
13.94522291448922
 31
0.0
1001
REVIT
1002
{
1070
     2
1000
-2001160
1002
}
  0
LINE
  5
1E6
330
14E
100
AcDbEntity
  8
4931.410
100
AcDbLine
 10
4.769114154842952
 20
13.94522291448922
 30
0.0
 11
4.824884810350982
 21
13.8818392209325
 31
0.0
1001
REVIT
1002
{
1070
     2
1000
-2001160
1002
}
  0
LINE
  5
1E7
330
14E
100
AcDbEntity
  8
4931.410
100
AcDbLine
 10
4.824884810350982
 20
13.8818392209325
 30
0.0
 11
4.878076183579536
 21
13.81627599618913
 31
0.0
1001
REVIT
1002
{
1070
     2
1000
-2001160
1002
}
  0
LINE
  5
1E8
330
14E
100
AcDbEntity
  8
4931.410
100
AcDbLine
 10
4.878076183579536
 20
13.81627599618913
 30
0.0
 11
4.928603179678335
 21
13.74863812743264
 31
0.0
1001
REVIT
1002
{
1070
     2
1000
-2001160
1002
}
  0
LINE
  5
1E9
330
14E
100
AcDbEntity
  8
4931.410
100
AcDbLine
 10
4.928603179678335
 20
13.74863812743264
 30
0.0
 11
4.976384966232138
 21
13.6790338208244
 31
0.0
1001
REVIT
1002
{
1070
     2
1000
-2001160
1002
}
  0
LINE
  5
1EA
330
14E
100
AcDbEntity
  8
4931.410
100
AcDbLine
 10
4.976384966232138
 20
13.6790338208244
 30
0.0
 11
5.021345102575364
 21
13.60757442840684
 31
0.0
1001
REVIT
1002
{
1070
     2
1000
-2001160
1002
}
  0
LINE
  5
1EB
330
14E
100
AcDbEntity
  8
4931.410
100
AcDbLine
 10
5.021345102575364
 20
13.60757442840684
 30
0.0
 11
5.063411662080848
 21
13.53437426996398
 31
0.0
1001
REVIT
1002
{
1070
     2
1000
-2001160
1002
}
  0
LINE
  5
1EC
330
14E
100
AcDbEntity
  8
4931.410
100
AcDbLine
 10
5.063411662080848
 20
13.53437426996398
 30
0.0
 11
5.102517347227102
 21
13.45955045013413
 31
0.0
1001
REVIT
1002
{
1070
     2
1000
-2001160
1002
}
  0
LINE
  5
1ED
330
14E
100
AcDbEntity
  8
4931.410
100
AcDbLine
 10
5.102517347227102
 20
13.45955045013413
 30
0.0
 11
5.138599597259993
 21
13.38322267106745
 31
0.0
1001
REVIT
1002
{
1070
     2
1000
-2001160
1002
}
  0
LINE
  5
1EE
330
14E
100
AcDbEntity
  8
4931.410
100
AcDbLine
 10
5.138599597259993
 20
13.38322267106745
 30
0.0
 11
5.171600688276604
 21
13.30551304092806
 31
0.0
1001
REVIT
1002
{
1070
     2
1000
-2001160
1002
}
  0
LINE
  5
1EF
330
14E
100
AcDbEntity
  8
4931.410
100
AcDbLine
 10
5.171600688276604
 20
13.30551304092806
 30
0.0
 11
5.201467825571168
 21
13.226545878547
 31
0.0
1001
REVIT
1002
{
1070
     2
1000
-2001160
1002
}
  0
LINE
  5
1F0
330
14E
100
AcDbEntity
  8
4931.410
100
AcDbLine
 10
5.201467825571168
 20
13.226545878547
 30
0.0
 11
5.228153228095328
 21
13.14644751453867
 31
0.0
1001
REVIT
1002
{
1070
     2
1000
-2001160
1002
}
  0
LINE
  5
1F1
330
14E
100
AcDbEntity
  8
4931.410
100
AcDbLine
 10
5.228153228095328
 20
13.14644751453867
 30
0.0
 11
5.23019154180744
 21
13.13985723427159
 31
0.0
1001
REVIT
1002
{
1070
     2
1000
-2001160
1002
}
  0
LINE
  5
1F2
330
14E
100
AcDbEntity
  8
4931.410
100
AcDbLine
 10
5.239399695875106
 20
13.10908044523648
 30
0.0
 11
5.251501306051062
 21
13.06576760770999
 31
0.0
1001
REVIT
1002
{
1070
     2
1000
-2001160
1002
}
  0
LINE
  5
1F3
330
14E
100
AcDbEntity
  8
4931.410
100
AcDbLine
 10
1.101811550301457
 20
8.829673196466108
 30
0.0
 11
-0.3981884496985418
 21
8.82967319646613
 31
0.0
1001
REVIT
1002
{
1070
     2
1000
-2001160
1002
}
  0
LINE
  5
1F4
330
14E
100
AcDbEntity
  8
4931.410
100
AcDbLine
 10
-0.3981884496985414
 20
8.863327464753455
 30
0.0
 11
1.101811550301458
 21
8.863327464753433
 31
0.0
1001
REVIT
1002
{
1070
     2
1000
-2001160
1002
}
  0
LINE
  5
1F5
330
14E
100
AcDbEntity
  8
4931.410
100
AcDbLine
 10
7.175542131557974
 20
11.68070444881581
 30
0.0
 11
5.726653392124373
 21
11.29247588116203
 31
0.0
1001
REVIT
1002
{
1070
     2
1000
-2001160
1002
}
  0
SPLINE
  5
1F6
330
14E
100
AcDbEntity
  8
4931.410
100
AcDbSpline
210
0.0
220
0.0
230
1.0
 70
     8
 71
     3
 72
    12
 73
     8
 74
     0
 42
0.000000001
 43
0.0000000001
 40
0.0
 40
0.0
 40
0.0
 40
0.0
 40
0.1428571428571428
 40
0.2857142857142857
 40
0.5714285714285714
 40
0.7857142857142857
 40
1.0
 40
1.0
 40
1.0
 40
1.0
 10
5.319347370715457
 20
12.81256264728884
 30
0.0
 10
5.319366633648296
 20
12.81249075704478
 30
0.0
 10
5.32184843572893
 20
12.80882604770465
 30
0.0
 10
5.336153385922895
 20
12.78660628591307
 30
0.0
 10
5.364632331272832
 20
12.73907443764749
 30
0.0
 10
5.400226017371009
 20
12.66282088823514
 30
0.0
 10
5.417997959410347
 20
12.60993420689166
 30
0.0
 10
5.42548379981555
 20
12.58218277265121
 30
0.0
1001
REVIT
1002
{
1070
     2
1000
-2001160
1002
}
  0
SPLINE
  5
1F7
330
14E
100
AcDbEntity
  8
4931.410
100
AcDbSpline
210
0.0
220
0.0
230
1.0
 70
     8
 71
     3
 72
    12
 73
     8
 74
     0
 42
0.000000001
 43
0.0000000001
 40
0.0
 40
0.0
 40
0.0
 40
0.0
 40
0.1428571428571428
 40
0.2857142857142857
 40
0.5714285714285714
 40
0.7857142857142857
 40
1.0
 40
1.0
 40
1.0
 40
1.0
 10
5.42548379981555
 20
12.58218277265121
 30
0.0
 10
5.430412325922642
 20
12.56366519448703
 30
0.0
 10
5.438591200946902
 20
12.52738945826832
 30
0.0
 10
5.448857763814511
 20
12.45626669170284
 30
0.0
 10
5.451186890117938
 20
12.38793656654471
 30
0.0
 10
5.449455174815665
 20
12.33983121348382
 30
0.0
 10
5.448727998867457
 20
12.32970756951039
 30
0.0
 10
5.448756893266716
 20
12.32959973414431
 30
0.0
1001
REVIT
1002
{
1070
     2
1000
-2001160
1002
}
  0
LINE
  5
1F8
330
14E
100
AcDbEntity
  8
4931.410
100
AcDbLine
 10
-0.214440675421807
 20
6.704658691081975
 30
0.0
 11
-0.2072054440738941
 21
6.704658691081975
 31
0.0
1001
REVIT
1002
{
1070
     2
1000
-2001160
1002
}
  0
LINE
  5
1F9
330
14E
100
AcDbEntity
  8
4931.410
100
AcDbLine
 10
1.173005867650362
 20
0.0
 30
0.0
 11
-1.173005867650362
 21
0.0
 31
0.0
1001
REVIT
1002
{
1070
     2
1000
-2001160
1002
}
  0
LINE
  5
1FA
330
14E
100
AcDbEntity
  8
4931.410
100
AcDbLine
 10
-0.2072054440739577
 20
6.704658691081975
 30
0.0
 11
-0.2072054440740467
 21
0.2499999999999993
 31
0.0
1001
REVIT
1002
{
1070
     2
1000
-2001160
1002
}
  0
ARC
  5
1FB
330
14E
100
AcDbEntity
  8
4931.410
100
AcDbCircle
 10
-0.6085440368380951
 20
7.058379675726031
 30
0.0
 40
0.5295620780014158
100
AcDbArc
 50
269.9999999999998
 51
318.0909594676784
1001
REVIT
1002
{
1070
     2
1000
-2001160
1002
}
  0
LINE
  5
1FC
330
14E
100
AcDbEntity
  8
4931.410
100
AcDbLine
 10
5.338660271258817
 20
12.30009943318789
 30
0.0
 11
5.209250748707565
 21
12.78306234633243
 31
0.0
1001
REVIT
1002
{
1070
     2
1000
-2001160
1002
}
  0
LINE
  5
1FD
330
14E
100
AcDbEntity
  8
4931.410
100
AcDbLine
 10
6.05336122030491
 20
11.32403682604272
 30
0.0
 11
6.90026188029806
 21
11.55096317395726
 31
0.0
1001
REVIT
1002
{
1070
     2
1000
-2001160
1002
}
  0
SPLINE
  5
1FE
330
14E
100
AcDbEntity
  8
4931.410
100
AcDbSpline
210
0.0
220
0.0
230
1.0
 70
     8
 71
     3
 72
    12
 73
     8
 74
     0
 42
0.000000001
 43
0.0000000001
 40
-1.0
 40
-1.0
 40
-1.0
 40
-1.0
 40
-0.6666666666666666
 40
-0.5
 40
-0.3333333333333333
 40
-0.1666666666666666
 40
0.0
 40
0.0
 40
0.0
 40
0.0
 10
-1.181673699332971
 20
6.422860017770598
 30
0.0
 10
-1.181673699332971
 20
6.43709361991809
 30
0.0
 10
-1.177463426695712
 20
6.458085582370916
 30
0.0
 10
-1.163310753430995
 20
6.483869517428637
 30
0.0
 10
-1.148357426576989
 20
6.501145886801493
 30
0.0
 10
-1.128985734499888
 20
6.515655562205846
 30
0.0
 10
-1.113083353469596
 20
6.522241739954686
 30
0.0
 10
-1.104380715091383
 20
6.524866633744068
 30
0.0
1001
REVIT
1002
{
1070
     2
1000
-2001160
1002
}
  0
LINE
  5
1FF
330
14E
100
AcDbEntity
  8
4931.410
100
AcDbLine
 10
-1.075716119379027
 20
6.528817597724615
 30
0.0
 11
-0.6085440368380937
 21
6.528817597724615
 31
0.0
1001
REVIT
1002
{
1070
     2
1000
-2001160
1002
}
  0
SPLINE
  5
200
330
14E
100
AcDbEntity
  8
4931.410
100
AcDbSpline
210
0.0
220
0.0
230
1.0
 70
     8
 71
     3
 72
     9
 73
     5
 74
     0
 42
0.000000001
 43
0.0000000001
 40
-1.0
 40
-1.0
 40
-1.0
 40
-1.0
 40
-0.5
 40
0.0
 40
0.0
 40
0.0
 40
0.0
 10
-1.104380715091383
 20
6.524866633744068
 30
0.0
 10
-1.10123799380346
 20
6.525960371417485
 30
0.0
 10
-1.093197128752397
 20
6.52771260308766
 30
0.0
 10
-1.081989478100493
 20
6.528594347404517
 30
0.0
 10
-1.075716119379028
 20
6.528817597724614
 30
0.0
1001
REVIT
1002
{
1070
     2
1000
-2001160
1002
}
  0
LINE
  5
201
330
14E
100
AcDbEntity
  8
4931.410
100
AcDbLine
 10
-1.181673699332972
 20
0.25
 30
0.0
 11
1.173005867650362
 21
0.25
 31
0.0
1001
REVIT
1002
{
1070
     2
1000
-2001160
1002
}
  0
SPLINE
  5
202
330
14E
100
AcDbEntity
  8
4931.410
100
AcDbSpline
210
0.0
220
0.0
230
1.0
 70
    24
 71
     3
 72
    24
 73
    20
 74
     0
 42
0.000000001
 43
0.0000000001
 40
0.0
 40
0.0
 40
0.0
 40
0.0
 40
0.1111111111111111
 40
0.1666666666666666
 40
0.2222222222222222
 40
0.2777777777777778
 40
0.3333333333333333
 40
0.3888888888888888
 40
0.4444444444444445
 40
0.4791666666666666
 40
0.5138888888888889
 40
0.5833333333333333
 40
0.6527777777777777
 40
0.6875
 40
0.7222222222222223
 40
0.7569444444444445
 40
0.7916666666666668
 40
0.861111111111111
 40
1.0
 40
1.0
 40
1.0
 40
1.0
 10
5.239399695875102
 20
13.10908044523646
 30
0.0
 10
5.240286407363135
 20
13.1093180388636
 30
0.0
 10
5.261303834012772
 20
13.11494964136135
 30
0.0
 10
5.333641261891584
 20
13.13433239674403
 30
0.0
 10
5.405780089248951
 20
13.15366193727736
 30
0.0
 10
5.496067210062897
 20
13.17785429838639
 30
0.0
 10
5.599685231590981
 20
13.20561866357615
 30
0.0
 10
5.714896082721425
 20
13.23648931809586
 30
0.0
 10
5.822476920573699
 20
13.26531551671943
 30
0.0
 10
5.915597610805689
 20
13.29026713046573
 30
0.0
 10
6.022977667022993
 20
13.31903952981236
 30
0.0
 10
6.15119827768965
 20
13.3533961388935
 30
0.0
 10
6.27770437991074
 20
13.38729334682127
 30
0.0
 10
6.366468948733431
 20
13.4110777413538
 30
0.0
 10
6.430380131078321
 20
13.42820269105043
 30
0.0
 10
6.488859164296645
 20
13.44387210077544
 30
0.0
 10
6.556110953047754
 20
13.46189216326085
 30
0.0
 10
6.654467986395739
 20
13.48824685091636
 30
0.0
 10
6.687404402892888
 20
13.49707213711835
 30
0.0
 10
6.688480689542414
 20
13.4973605272569
 30
0.0
1001
REVIT
1002
{
1070
     2
1000
-2001160
1002
}
  0
SPLINE
  5
203
330
14E
100
AcDbEntity
  8
4931.410
100
AcDbSpline
210
0.0
220
0.0
230
1.0
 70
    24
 71
     3
 72
    25
 73
    21
 74
     0
 42
0.000000001
 43
0.0000000001
 40
0.0
 40
0.0
 40
0.0
 40
0.0
 40
0.0555555555555556
 40
0.1111111111111111
 40
0.1666666666666666
 40
0.2222222222222222
 40
0.2777777777777778
 40
0.3333333333333333
 40
0.3888888888888888
 40
0.4444444444444445
 40
0.4791666666666666
 40
0.5138888888888889
 40
0.5833333333333333
 40
0.6527777777777777
 40
0.6875
 40
0.7222222222222223
 40
0.7569444444444445
 40
0.7916666666666668
 40
0.861111111111111
 40
1.0
 40
1.0
 40
1.0
 40
1.0
 10
6.679645374153724
 20
13.52823721811496
 30
0.0
 10
6.679214181520669
 20
13.52812168039715
 30
0.0
 10
6.671387496431358
 20
13.52602452644806
 30
0.0
 10
6.63975184668941
 20
13.51754777964768
 30
0.0
 10
6.585228742754638
 20
13.5029383579795
 30
0.0
 10
6.512980483941427
 20
13.48357949537596
 30
0.0
 10
6.422772960067149
 20
13.45940846220263
 30
0.0
 10
6.319248918832535
 20
13.43166927895661
 30
0.0
 10
6.203927674070369
 20
13.40076904455245
 30
0.0
 10
6.096250703740992
 20
13.37191708730925
 30
0.0
 10
6.00310689704855
 20
13.34695927952605
 30
0.0
 10
5.895712000182629
 20
13.31818290363961
 30
0.0
 10
5.767500244989923
 20
13.28382866737553
 30
0.0
 10
5.641105633462321
 20
13.24996133328908
 30
0.0
 10
5.552302774684469
 20
13.22616667899398
 30
0.0
 10
5.488296640272903
 20
13.20901628696775
 30
0.0
 10
5.429724206262187
 20
13.19332185057586
 30
0.0
 10
5.362440135193177
 20
13.17529313806944
 30
0.0
 10
5.264268692972402
 20
13.14898817940659
 30
0.0
 10
5.2313046712809
 20
13.14015549641506
 30
0.0
 10
5.230191541807434
 20
13.13985723427157
 30
0.0
1001
REVIT
1002
{
1070
     2
1000
-2001160
1002
}
  0
ENDBLK
  5
204
330
14E
100
AcDbEntity
  8
0
100
AcDbBlockEnd
  0
BLOCK
  5
212
330
211
100
AcDbEntity
  8
0
100
AcDbBlockBegin
  2
AMSTD_Beale_4931.410_Plan View
 70
     0
 10
0.0
 20
0.0
 30
0.0
  3
AMSTD_Beale_4931.410_Plan View
  1

  0
ARC
  5
213
330
211
100
AcDbEntity
  8
0
 62
     8
370
    18
100
AcDbCircle
 10
0.0
 20
0.0
 30
0.0
 40
1.177339783491666
100
AcDbArc
 50
50.26121307649916
 51
57.65227475120966
  0
ARC
  5
214
330
211
100
AcDbEntity
  8
4931.410
100
AcDbCircle
 10
2.171477928227644
 20
0.32923329081009
 30
0.0
 40
0.0199199210078471
100
AcDbArc
 50
90.0
 51
179.9999999999999
1001
REVIT
1002
{
1070
     1
1000
62371
1002
}
1002
{
1070
     2
1000
-2001160
1002
}
  0
LINE
  5
215
330
211
100
AcDbEntity
  8
4931.410
100
AcDbLine
 10
2.151558007219797
 20
0.2397962920383492
 30
0.0
 11
2.101917342499276
 21
0.24854928056888
 31
0.0
1001
REVIT
1002
{
1070
     1
1000
62371
1002
}
1002
{
1070
     2
1000
-2001160
1002
}
  0
ARC
  5
216
330
211
100
AcDbEntity
  8
4931.410
100
AcDbCircle
 10
0.0
 20
0.0
 30
0.0
 40
1.177339783491666
100
AcDbArc
 50
17.25117295129104
 51
230.4287222023083
1001
REVIT
1002
{
1070
     1
1000
62371
1002
}
1002
{
1070
     2
1000
-2001160
1002
}
  0
LINE
  5
217
330
211
100
AcDbEntity
  8
4931.410
100
AcDbLine
 10
-0.7500097732795298
 20
-0.3561454661433028
 30
0.0
 11
-0.7500097732795396
 21
-6.429249627906173
 31
0.0
1001
REVIT
1002
{
1070
     1
1000
62371
1002
}
1002
{
1070
     2
1000
-2001160
1002
}
  0
ARC
  5
218
330
211
100
AcDbEntity
  8
4931.410
100
AcDbCircle
 10
-0.0000097732795307
 20
-6.429249627906174
 30
0.0
 40
0.7499999999999865
100
AcDbArc
 50
179.9999999999998
 51
359.9999999999992
1001
REVIT
1002
{
1070
     1
1000
62371
1002
}
1002
{
1070
     2
1000
-2001160
1002
}
  0
LINE
  5
219
330
211
100
AcDbEntity
  8
4931.410
100
AcDbLine
 10
0.7499902267204516
 20
-6.429249627906179
 30
0.0
 11
0.7499902267204561
 21
-0.3561454661433001
 31
0.0
1001
REVIT
1002
{
1070
     1
1000
62371
1002
}
1002
{
1070
     2
1000
-2001160
1002
}
  0
LINE
  5
21A
330
211
100
AcDbEntity
  8
4931.410
100
AcDbLine
 10
0.7499902267204429
 20
-1.061444144103222
 30
0.0
 11
2.101917342499276
 21
-1.061444144103217
 31
0.0
1001
REVIT
1002
{
1070
     1
1000
62371
1002
}
1002
{
1070
     2
1000
-2001160
1002
}
  0
LINE
  5
21B
330
211
100
AcDbEntity
  8
4931.410
100
AcDbLine
 10
2.101917342499276
 20
-1.061444144103217
 30
0.0
 11
2.101917342499276
 21
0.3491532118179376
 31
0.0
1001
REVIT
1002
{
1070
     1
1000
62371
1002
}
1002
{
1070
     2
1000
-2001160
1002
}
  0
LINE
  5
21C
330
211
100
AcDbEntity
  8
4931.410
100
AcDbLine
 10
2.101917342499276
 20
-0.9608402128541602
 30
0.0
 11
2.151558007219797
 21
-0.9520872243236293
 31
0.0
1001
REVIT
1002
{
1070
     1
1000
62371
1002
}
1002
{
1070
     2
1000
-2001160
1002
}
  0
LINE
  5
21D
330
211
100
AcDbEntity
  8
4931.410
100
AcDbLine
 10
2.151558007219797
 20
0.3292332908100897
 30
0.0
 11
2.151558007219797
 21
-1.04152422309537
 31
0.0
1001
REVIT
1002
{
1070
     1
1000
62371
1002
}
1002
{
1070
     2
1000
-2001160
1002
}
  0
ARC
  5
21E
330
211
100
AcDbEntity
  8
4931.410
100
AcDbCircle
 10
2.171477928227645
 20
-1.04152422309537
 30
0.0
 40
0.0199199210078478
100
AcDbArc
 50
179.9999999999992
 51
269.9999999999988
1001
REVIT
1002
{
1070
     1
1000
62371
1002
}
1002
{
1070
     2
1000
-2001160
1002
}
  0
LINE
  5
21F
330
211
100
AcDbEntity
  8
4931.410
100
AcDbLine
 10
2.171477928227644
 20
-1.061444144103217
 30
0.0
 11
3.125519406047694
 21
-1.061444144103214
 31
0.0
1001
REVIT
1002
{
1070
     1
1000
62371
1002
}
1002
{
1070
     2
1000
-2001160
1002
}
  0
LINE
  5
220
330
211
100
AcDbEntity
  8
4931.410
100
AcDbLine
 10
3.125519406047694
 20
-1.061444144103214
 30
0.0
 11
3.125519406047696
 21
0.3491532118179342
 31
0.0
1001
REVIT
1002
{
1070
     1
1000
62371
1002
}
1002
{
1070
     2
1000
-2001160
1002
}
  0
LINE
  5
221
330
211
100
AcDbEntity
  8
4931.410
100
AcDbLine
 10
3.125519406047696
 20
0.3491532118179342
 30
0.0
 11
2.171477928227644
 21
0.3491532118179373
 31
0.0
1001
REVIT
1002
{
1070
     1
1000
62371
1002
}
1002
{
1070
     2
1000
-2001160
1002
}
  0
LINE
  5
222
330
211
100
AcDbEntity
  8
4931.410
100
AcDbLine
 10
-0.5000097732795431
 20
0.9832531158674157
 30
0.0
 11
-0.5000097732795444
 21
0.2028715282319335
 31
0.0
1001
REVIT
1002
{
1070
     1
1000
62826
1002
}
1002
{
1070
     2
1000
-2001160
1002
}
  0
LINE
  5
223
330
211
100
AcDbEntity
  8
4931.410
100
AcDbLine
 10
2.101917342499276
 20
0.3491532118179376
 30
0.0
 11
0.4999554018711276
 21
0.3491532118179429
 31
0.0
1001
REVIT
1002
{
1070
     1
1000
63010
1002
}
1002
{
1070
     2
1000
-2001160
1002
}
  0
LINE
  5
224
330
211
100
AcDbEntity
  8
4931.410
100
AcDbLine
 10
0.4999554018711274
 20
0.2029026745707986
 30
0.0
 11
0.4999554018711286
 21
0.9832738512372563
 31
0.0
1001
REVIT
1002
{
1070
     1
1000
63056
1002
}
1002
{
1070
     2
1000
-2001160
1002
}
  0
ARC
  5
225
330
211
100
AcDbEntity
  8
4931.410
100
AcDbCircle
 10
0.374955401871126
 20
0.9832738512372564
 30
0.0
 40
0.1250000000000027
100
AcDbArc
 50
359.9999999999995
 51
69.12646800471719
1001
REVIT
1002
{
1070
     1
1000
63099
1002
}
1002
{
1070
     2
1000
-2001160
1002
}
  0
ARC
  5
226
330
211
100
AcDbEntity
  8
4931.410
100
AcDbCircle
 10
-0.3733206020595266
 20
0.982556334619106
 30
0.0
 40
0.1266910873286778
100
AcDbArc
 50
111.4569920867419
 51
179.684880547782
1001
REVIT
1002
{
1070
     1
1000
63145
1002
}
1002
{
1070
     2
1000
-2001160
1002
}
  0
ARC
  5
227
330
211
100
AcDbEntity
  8
4931.410
100
AcDbCircle
 10
-0.0000097732805269
 20
-0.3561454661433039
 30
0.0
 40
0.7500000000002133
100
AcDbArc
 50
0.0000000000002862
 51
180.0000198478428
1001
REVIT
1002
{
1070
     1
1000
63246
1002
}
1002
{
1070
     2
1000
-2001160
1002
}
  0
LINE
  5
228
330
211
100
AcDbEntity
  8
4931.410
100
AcDbLine
 10
2.819509136545736
 20
0.3475060186521911
 30
0.0
 11
2.819509136545733
 21
-1.059796950937578
 31
0.0
1001
REVIT
1002
{
1070
     1
1000
63488
1002
}
1002
{
1070
     2
1000
-2001160
1002
}
  0
ARC
  5
229
330
211
100
AcDbEntity
  8
4931.410
100
AcDbCircle
 10
-0.0240655619596734
 20
-5.943970930738193
 30
0.0
 40
0.7276637338333034
100
AcDbArc
 50
183.9396873471306
 51
230.0603126529515
1001
REVIT
1002
{
1070
     1
1000
63592
1002
}
1002
{
1070
     2
1000
-2001160
1002
}
  0
ARC
  5
22A
330
211
100
AcDbEntity
  8
4931.410
100
AcDbCircle
 10
-0.0041862230051275
 20
-5.920228946599777
 30
0.0
 40
0.7586293587761086
100
AcDbArc
 50
230.0603126529515
 51
259.9396873472887
1001
REVIT
1002
{
1070
     1
1000
63621
1002
}
1002
{
1070
     2
1000
-2001160
1002
}
  0
ARC
  5
22B
330
211
100
AcDbEntity
  8
4931.410
100
AcDbCircle
 10
0.0240460153995972
 20
-5.943970930738193
 30
0.0
 40
0.7276637338333034
100
AcDbArc
 50
309.9396873470478
 51
356.0603126528687
1001
REVIT
1002
{
1070
     1
1000
63643
1002
}
1002
{
1070
     2
1000
-2001160
1002
}
  0
ARC
  5
22C
330
211
100
AcDbEntity
  8
4931.410
100
AcDbCircle
 10
0.0041666764450512
 20
-5.920228946599777
 30
0.0
 40
0.7586293587761088
100
AcDbArc
 50
280.0603126526789
 51
309.9396873470478
1001
REVIT
1002
{
1070
     1
1000
63644
1002
}
1002
{
1070
     2
1000
-2001160
1002
}
  0
ARC
  5
22D
330
211
100
AcDbEntity
  8
4931.410
100
AcDbCircle
 10
-0.0000097732800316
 20
-5.896688056365912
 30
0.0
 40
0.7825378561213849
100
AcDbArc
 50
259.9396873472888
 51
280.0603126526789
1001
REVIT
1002
{
1070
     1
1000
63691
1002
}
1002
{
1070
     2
1000
-2001160
1002
}
  0
ENDBLK
  5
22E
330
211
100
AcDbEntity
  8
0
100
AcDbBlockEnd
  0
ENDSEC
  0
SECTION
  2
ENTITIES
  0
INSERT
  5
14D
330
70
100
AcDbEntity
  8
0
100
AcDbBlockReference
  2
AMSTD_Beale_4931.410_Front View
 10
-4.411037085699924
 20
1.02959372841272
 30
0.0
  0
INSERT
  5
210
330
70
100
AcDbEntity
  8
0
100
AcDbBlockReference
  2
AMSTD_Beale_4931.410_Side View
 10
-15.53210953841469
 20
1.029593728412722
 30
0.0
  0
INSERT
  5
236
330
70
100
AcDbEntity
  8
0
100
AcDbBlockReference
  2
AMSTD_Beale_4931.410_Plan View
 10
-4.411027312420385
 20
29.39191532635117
 30
0.0
  0
ENDSEC
  0
SECTION
  2
OBJECTS
  0
DICTIONARY
  5
C
330
0
100
AcDbDictionary
281
     1
  3
ACAD_CIP_PREVIOUS_PRODUCT_INFO
350
79
  3
ACAD_COLOR
350
63
  3
ACAD_DETAILVIEWSTYLE
350
6A
  3
ACAD_GROUP
350
D
  3
ACAD_IMAGE_VARS
350
7A
  3
ACAD_LAYOUT
350
62
  3
ACAD_MATERIAL
350
10
  3
ACAD_MLEADERSTYLE
350
66
  3
ACAD_MLINESTYLE
350
5F
  3
ACAD_PLOTSETTINGS
350
61
  3
ACAD_PLOTSTYLENAME
350
E
  3
ACAD_SCALELIST
350
42
  3
ACAD_SECTIONVIEWSTYLE
350
68
  3
ACAD_TABLESTYLE
350
64
  3
ACAD_VISUALSTYLE
350
29
  3
ACDB_RECOMPOSE_DATA
350
23E
  3
AcDbVariableDictionary
350
D1
  3
AEC_PROPERTY_SET_DEFS
350
20E
  3
REVIT_DICTIONARY
350
C7
  0
DICTIONARY
  5
206
330
2
100
AcDbDictionary
280
     1
281
     1
  3
ACAD_LAYERSTATES
360
207
  0
DICTIONARY
  5
CA
330
70
100
AcDbDictionary
280
     1
281
     1
  3
ACAD_SORTENTS
360
CB
  0
XRECORD
  5
79
102
{ACAD_REACTORS
330
C
102
}
330
C
100
AcDbXrecord
280
     1
300
ARCHDESK
300
2014
300
86137ARCHDESK_2014_0F
  0
DICTIONARY
  5
63
102
{ACAD_REACTORS
330
C
102
}
330
C
100
AcDbDictionary
281
     1
  0
DICTIONARY
  5
6A
102
{ACAD_REACTORS
330
C
102
}
330
C
100
AcDbDictionary
281
     1
  3
Imperial24
350
6B
  0
DICTIONARY
  5
D
102
{ACAD_REACTORS
330
C
102
}
330
C
100
AcDbDictionary
281
     1
  0
RASTERVARIABLES
  5
7A
102
{ACAD_REACTORS
330
C
102
}
330
C
100
AcDbRasterVariables
 90
        0
 70
     0
 71
     1
 72
     5
  0
DICTIONARY
  5
62
102
{ACAD_REACTORS
330
C
102
}
330
C
100
AcDbDictionary
281
     1
  3
Layout1
350
6F
  3
Layout2
350
77
  3
Model
350
73
  0
DICTIONARY
  5
10
102
{ACAD_REACTORS
330
C
102
}
330
C
100
AcDbDictionary
281
     1
  3
ByBlock
350
19
  3
ByLayer
350
11
  3
Global
350
21
  0
DICTIONARY
  5
66
102
{ACAD_REACTORS
330
C
102
}
330
C
100
AcDbDictionary
281
     1
  3
Standard
350
67
  0
DICTIONARY
  5
5F
102
{ACAD_REACTORS
330
C
102
}
330
C
100
AcDbDictionary
281
     1
  3
Standard
350
60
  0
DICTIONARY
  5
61
102
{ACAD_REACTORS
330
C
102
}
330
C
100
AcDbDictionary
281
     1
  0
ACDBDICTIONARYWDFLT
  5
E
102
{ACAD_REACTORS
330
C
102
}
330
C
100
AcDbDictionary
281
     1
  3
Normal
350
F
100
AcDbDictionaryWithDefault
340
F
  0
DICTIONARY
  5
42
102
{ACAD_REACTORS
330
C
102
}
330
C
100
AcDbDictionary
281
     1
  3
A0
350
43
  3
A1
350
44
  3
A2
350
45
  3
A3
350
46
  3
A4
350
47
  3
A5
350
48
  3
A6
350
49
  3
A7
350
4A
  3
A8
350
4B
  3
A9
350
4C
  3
B0
350
4D
  3
B1
350
4E
  3
B2
350
4F
  3
B3
350
50
  3
B4
350
51
  3
B5
350
52
  3
B6
350
53
  0
DICTIONARY
  5
68
102
{ACAD_REACTORS
330
C
102
}
330
C
100
AcDbDictionary
281
     1
  3
Imperial24
350
69
  0
DICTIONARY
  5
64
102
{ACAD_REACTORS
330
C
102
}
330
C
100
AcDbDictionary
281
     1
  3
Standard
350
65
  0
DICTIONARY
  5
29
102
{ACAD_REACTORS
330
C
102
}
330
C
100
AcDbDictionary
281
     1
  3
2dWireframe
350
2F
  3
Basic
350
2E
  3
Brighten
350
35
  3
ColorChange
350
39
  3
Conceptual
350
32
  3
Dim
350
34
  3
EdgeColorOff
350
41
  3
Facepattern
350
38
  3
Flat
350
2A
  3
FlatWithEdges
350
2B
  3
Gouraud
350
2C
  3
GouraudWithEdges
350
2D
  3
Hidden
350
31
  3
JitterOff
350
3F
  3
Linepattern
350
37
  3
OverhangOff
350
40
  3
Realistic
350
33
  3
Shaded
350
3E
  3
Shaded with edges
350
3D
  3
Shades of Gray
350
3A
  3
Sketchy
350
3B
  3
Thicken
350
36
  3
Wireframe
350
30
  3
X-Ray
350
3C
  0
XRECORD
  5
23E
102
{ACAD_REACTORS
330
C
102
}
330
C
100
AcDbXrecord
280
     1
 90
        1
330
65
330
69
330
6B
  0
DICTIONARY
  5
D1
102
{ACAD_REACTORS
330
C
102
}
330
C
100
AcDbDictionary
281
     1
  3
CANNOSCALE
350
D6
  3
CMLEADERSTYLE
350
D3
  3
CTABLESTYLE
350
D2
  3
CVIEWDETAILSTYLE
350
D4
  3
CVIEWSECTIONSTYLE
350
D5
  0
DICTIONARY
  5
20E
102
{ACAD_REACTORS
330
C
102
}
330
C
100
AcDbDictionary
281
     1
  0
DICTIONARY
  5
C7
102
{ACAD_REACTORS
330
C
102
}
330
C
100
AcDbDictionary
281
     1
  3
DRAWING_TOOL
350
C9
  3
REVIT_CATEGORY_MAPPING
350
C8
  0
DICTIONARY
  5
207
102
{ACAD_REACTORS
330
206
102
}
330
206
100
AcDbDictionary
281
     1
  0
SORTENTSTABLE
  5
CB
102
{ACAD_REACTORS
330
CA
102
}
330
CA
100
AcDbSortentsTable
330
70
  0
ACDBDETAILVIEWSTYLE
  5
6B
102
{ACAD_XDICTIONARY
360
CE
102
}
102
{ACAD_REACTORS
330
6A
102
}
330
6A
100
AcDbModelDocViewStyle
 70
     0
  3
Imperial24
290
     0
100
AcDbDetailViewStyle
 70
     0
 71
     0
 90
        3
 71
     1
340
55
 62
   256
 40
0.24
340
0
 62
   256
 40
0.24
300

 40
0.36
280
     3
 71
     2
340
5D
 90
       25
 62
   256
 71
     3
340
55
 62
   256
 40
0.24
 90
        1
 40
0.75
 90
        1
300
%<\AcVar ViewType \f "%tc1">% %<\AcVar ViewDetailId>%\PSCALE %<\AcVar ViewScale \f "%sn">%
 71
     4
340
5D
 90
       25
 62
   256
340
5D
 90
       25
 62
   256
280
     0
  0
LAYOUT
  5
6F
102
{ACAD_REACTORS
330
62
102
}
330
62
100
AcDbPlotSettings
  1

  2

  4

  6

 40
0.0
 41
0.0
 42
0.0
 43
0.0
 44
0.0
 45
0.0
 46
0.0
 47
0.0
 48
0.0
 49
0.0
140
0.0
141
0.0
142
1.0
143
1.0
 70
   688
 72
     0
 73
     0
 74
     5
  7

 75
    16
147
1.0
 76
     0
 77
     2
 78
   300
148
0.0
149
0.0
100
AcDbLayout
  1
Layout1
 70
     1
 71
     1
 10
0.0
 20
0.0
 11
12.0
 21
9.0
 12
0.0
 22
0.0
 32
0.0
 14
1.000000000000000E+20
 24
1.000000000000000E+20
 34
1.000000000000000E+20
 15
-1.000000000000000E+20
 25
-1.000000000000000E+20
 35
-1.000000000000000E+20
146
0.0
 13
0.0
 23
0.0
 33
0.0
 16
1.0
 26
0.0
 36
0.0
 17
0.0
 27
1.0
 37
0.0
 76
     0
330
6C
  0
LAYOUT
  5
77
102
{ACAD_REACTORS
330
62
102
}
330
62
100
AcDbPlotSettings
  1

  2

  4

  6

 40
0.0
 41
0.0
 42
0.0
 43
0.0
 44
0.0
 45
0.0
 46
0.0
 47
0.0
 48
0.0
 49
0.0
140
0.0
141
0.0
142
1.0
143
1.0
 70
   688
 72
     0
 73
     0
 74
     5
  7

 75
    16
147
1.0
 76
     0
 77
     2
 78
   300
148
0.0
149
0.0
100
AcDbLayout
  1
Layout2
 70
     1
 71
     2
 10
0.0
 20
0.0
 11
12.0
 21
9.0
 12
0.0
 22
0.0
 32
0.0
 14
0.0
 24
0.0
 34
0.0
 15
0.0
 25
0.0
 35
0.0
146
0.0
 13
0.0
 23
0.0
 33
0.0
 16
1.0
 26
0.0
 36
0.0
 17
0.0
 27
1.0
 37
0.0
 76
     0
330
74
  0
LAYOUT
  5
73
102
{ACAD_REACTORS
330
62
102
}
330
62
100
AcDbPlotSettings
  1

  2

  4

  6

 40
0.0
 41
0.0
 42
0.0
 43
0.0
 44
0.0
 45
0.0
 46
0.0
 47
0.0
 48
0.0
 49
0.0
140
0.0
141
0.0
142
1.0
143
1.0
 70
  1712
 72
     0
 73
     0
 74
     0
  7

 75
     0
147
1.0
 76
     0
 77
     2
 78
   300
148
0.0
149
0.0
100
AcDbLayout
  1
Model
 70
     1
 71
     0
 10
0.0
 20
0.0
 11
12.0
 21
9.0
 12
0.0
 22
0.0
 32
0.0
 14
0.0
 24
0.0
 34
0.0
 15
0.0
 25
0.0
 35
0.0
146
0.0
 13
0.0
 23
0.0
 33
0.0
 16
1.0
 26
0.0
 36
0.0
 17
0.0
 27
1.0
 37
0.0
 76
     0
330
70
331
57
  0
MATERIAL
  5
19
102
{ACAD_XDICTIONARY
360
1A
102
}
102
{ACAD_REACTORS
330
10
102
}
330
10
100
AcDbMaterial
  1
ByBlock
 72
     0
 43
0.0208333333333333
 43
0.0
 43
0.0
 43
0.0
 43
0.0
 43
0.0208333333333333
 43
0.0
 43
0.0
 43
0.0
 43
0.0
 43
1.0
 43
0.0
 43
0.0
 43
0.0
 43
0.0
 43
1.0
 77
     0
 47
0.0208333333333333
 47
0.0
 47
0.0
 47
0.0
 47
0.0
 47
0.0208333333333333
 47
0.0
 47
0.0
 47
0.0
 47
0.0
 47
1.0
 47
0.0
 47
0.0
 47
0.0
 47
0.0
 47
1.0
171
     0
 49
0.0208333333333333
 49
0.0
 49
0.0
 49
0.0
 49
0.0
 49
0.0208333333333333
 49
0.0
 49
0.0
 49
0.0
 49
0.0
 49
1.0
 49
0.0
 49
0.0
 49
0.0
 49
0.0
 49
1.0
175
     0
142
0.0208333333333333
142
0.0
142
0.0
142
0.0
142
0.0
142
0.0208333333333333
142
0.0
142
0.0
142
0.0
142
0.0
142
1.0
142
0.0
142
0.0
142
0.0
142
0.0
142
1.0
179
     0
144
0.0208333333333333
144
0.0
144
0.0
144
0.0
144
0.0
144
0.0208333333333333
144
0.0
144
0.0
144
0.0
144
0.0
144
1.0
144
0.0
144
0.0
144
0.0
144
0.0
144
1.0
147
0.0208333333333333
147
0.0
147
0.0
147
0.0
147
0.0
147
0.0208333333333333
147
0.0
147
0.0
147
0.0
147
0.0
147
1.0
147
0.0
147
0.0
147
0.0
147
0.0
147
1.0
  0
MATERIAL
  5
11
102
{ACAD_XDICTIONARY
360
12
102
}
102
{ACAD_REACTORS
330
10
102
}
330
10
100
AcDbMaterial
  1
ByLayer
 72
     0
 43
0.0208333333333333
 43
0.0
 43
0.0
 43
0.0
 43
0.0
 43
0.0208333333333333
 43
0.0
 43
0.0
 43
0.0
 43
0.0
 43
1.0
 43
0.0
 43
0.0
 43
0.0
 43
0.0
 43
1.0
 77
     0
 47
0.0208333333333333
 47
0.0
 47
0.0
 47
0.0
 47
0.0
 47
0.0208333333333333
 47
0.0
 47
0.0
 47
0.0
 47
0.0
 47
1.0
 47
0.0
 47
0.0
 47
0.0
 47
0.0
 47
1.0
171
     0
 49
0.0208333333333333
 49
0.0
 49
0.0
 49
0.0
 49
0.0
 49
0.0208333333333333
 49
0.0
 49
0.0
 49
0.0
 49
0.0
 49
1.0
 49
0.0
 49
0.0
 49
0.0
 49
0.0
 49
1.0
175
     0
142
0.0208333333333333
142
0.0
142
0.0
142
0.0
142
0.0
142
0.0208333333333333
142
0.0
142
0.0
142
0.0
142
0.0
142
1.0
142
0.0
142
0.0
142
0.0
142
0.0
142
1.0
179
     0
144
0.0208333333333333
144
0.0
144
0.0
144
0.0
144
0.0
144
0.0208333333333333
144
0.0
144
0.0
144
0.0
144
0.0
144
1.0
144
0.0
144
0.0
144
0.0
144
0.0
144
1.0
147
0.0208333333333333
147
0.0
147
0.0
147
0.0
147
0.0
147
0.0208333333333333
147
0.0
147
0.0
147
0.0
147
0.0
147
1.0
147
0.0
147
0.0
147
0.0
147
0.0
147
1.0
  0
MATERIAL
  5
21
102
{ACAD_XDICTIONARY
360
22
102
}
102
{ACAD_REACTORS
330
10
102
}
330
10
100
AcDbMaterial
  1
Global
 72
     0
 43
0.0208333333333333
 43
0.0
 43
0.0
 43
0.0
 43
0.0
 43
0.0208333333333333
 43
0.0
 43
0.0
 43
0.0
 43
0.0
 43
1.0
 43
0.0
 43
0.0
 43
0.0
 43
0.0
 43
1.0
 77
     0
 47
0.0208333333333333
 47
0.0
 47
0.0
 47
0.0
 47
0.0
 47
0.0208333333333333
 47
0.0
 47
0.0
 47
0.0
 47
0.0
 47
1.0
 47
0.0
 47
0.0
 47
0.0
 47
0.0
 47
1.0
171
     0
 49
0.0208333333333333
 49
0.0
 49
0.0
 49
0.0
 49
0.0
 49
0.0208333333333333
 49
0.0
 49
0.0
 49
0.0
 49
0.0
 49
1.0
 49
0.0
 49
0.0
 49
0.0
 49
0.0
 49
1.0
175
     0
142
0.0208333333333333
142
0.0
142
0.0
142
0.0
142
0.0
142
0.0208333333333333
142
0.0
142
0.0
142
0.0
142
0.0
142
1.0
142
0.0
142
0.0
142
0.0
142
0.0
142
1.0
179
     0
144
0.0208333333333333
144
0.0
144
0.0
144
0.0
144
0.0
144
0.0208333333333333
144
0.0
144
0.0
144
0.0
144
0.0
144
1.0
144
0.0
144
0.0
144
0.0
144
0.0
144
1.0
147
0.0208333333333333
147
0.0
147
0.0
147
0.0
147
0.0
147
0.0208333333333333
147
0.0
147
0.0
147
0.0
147
0.0
147
1.0
147
0.0
147
0.0
147
0.0
147
0.0
147
1.0
  0
MLEADERSTYLE
  5
67
102
{ACAD_REACTORS
330
66
102
}
330
66
100
AcDbMLeaderStyle
179
     2
170
     2
171
     1
172
     0
 90
        2
 40
0.0
 41
0.0
173
     1
 91
-1056964608
340
5B
 92
       -2
290
     1
 42
0.09
291
     1
 43
0.36
  3
Standard
 44
0.18
300

342
55
174
     1
178
     6
175
     1
176
     0
 93
-1056964608
 45
0.18
292
     0
297
     0
 46
0.18
 94
-1056964608
 47
1.0
 49
1.0
140
1.0
293
     1
141
0.0
294
     1
177
     0
142
1.0
295
     1
296
     0
143
0.125
271
     0
272
     9
273
     9
298
     1
  0
MLINESTYLE
  5
60
102
{ACAD_REACTORS
330
5F
102
}
330
5F
100
AcDbMlineStyle
  2
STANDARD
 70
     0
  3

 62
   256
 51
90.0
 52
90.0
 71
     2
 49
0.5
 62
   256
  6
BYLAYER
 49
-0.5
 62
   256
  6
BYLAYER
  0
ACDBPLACEHOLDER
  5
F
102
{ACAD_REACTORS
330
E
102
}
330
E
  0
SCALE
  5
43
102
{ACAD_REACTORS
330
42
102
}
330
42
100
AcDbScale
 70
     0
300
1:1
140
1.0
141
1.0
290
     1
  0
SCALE
  5
44
102
{ACAD_REACTORS
330
42
102
}
330
42
100
AcDbScale
 70
     0
300
1/128" = 1'-0"
140
0.0078125
141
12.0
290
     0
  0
SCALE
  5
45
102
{ACAD_REACTORS
330
42
102
}
330
42
100
AcDbScale
 70
     0
300
1/64" = 1'-0"
140
0.015625
141
12.0
290
     0
  0
SCALE
  5
46
102
{ACAD_REACTORS
330
42
102
}
330
42
100
AcDbScale
 70
     0
300
1/32" = 1'-0"
140
0.03125
141
12.0
290
     0
  0
SCALE
  5
47
102
{ACAD_REACTORS
330
42
102
}
330
42
100
AcDbScale
 70
     0
300
1/16" = 1'-0"
140
0.0625
141
12.0
290
     0
  0
SCALE
  5
48
102
{ACAD_REACTORS
330
42
102
}
330
42
100
AcDbScale
 70
     0
300
3/32" = 1'-0"
140
0.09375
141
12.0
290
     0
  0
SCALE
  5
49
102
{ACAD_REACTORS
330
42
102
}
330
42
100
AcDbScale
 70
     0
300
1/8" = 1'-0"
140
0.125
141
12.0
290
     0
  0
SCALE
  5
4A
102
{ACAD_REACTORS
330
42
102
}
330
42
100
AcDbScale
 70
     0
300
3/16" = 1'-0"
140
0.1875
141
12.0
290
     0
  0
SCALE
  5
4B
102
{ACAD_REACTORS
330
42
102
}
330
42
100
AcDbScale
 70
     0
300
1/4" = 1'-0"
140
0.25
141
12.0
290
     0
  0
SCALE
  5
4C
102
{ACAD_REACTORS
330
42
102
}
330
42
100
AcDbScale
 70
     0
300
3/8" = 1'-0"
140
0.375
141
12.0
290
     0
  0
SCALE
  5
4D
102
{ACAD_REACTORS
330
42
102
}
330
42
100
AcDbScale
 70
     0
300
1/2" = 1'-0"
140
0.5
141
12.0
290
     0
  0
SCALE
  5
4E
102
{ACAD_REACTORS
330
42
102
}
330
42
100
AcDbScale
 70
     0
300
3/4" = 1'-0"
140
0.75
141
12.0
290
     0
  0
SCALE
  5
4F
102
{ACAD_REACTORS
330
42
102
}
330
42
100
AcDbScale
 70
     0
300
1" = 1'-0"
140
1.0
141
12.0
290
     0
  0
SCALE
  5
50
102
{ACAD_REACTORS
330
42
102
}
330
42
100
AcDbScale
 70
     0
300
1-1/2" = 1'-0"
140
1.5
141
12.0
290
     0
  0
SCALE
  5
51
102
{ACAD_REACTORS
330
42
102
}
330
42
100
AcDbScale
 70
     0
300
3" = 1'-0"
140
3.0
141
12.0
290
     0
  0
SCALE
  5
52
102
{ACAD_REACTORS
330
42
102
}
330
42
100
AcDbScale
 70
     0
300
6" = 1'-0"
140
6.0
141
12.0
290
     0
  0
SCALE
  5
53
102
{ACAD_REACTORS
330
42
102
}
330
42
100
AcDbScale
 70
     0
300
1'-0" = 1'-0"
140
12.0
141
12.0
290
     0
  0
ACDBSECTIONVIEWSTYLE
  5
69
102
{ACAD_XDICTIONARY
360
CC
102
}
102
{ACAD_REACTORS
330
68
102
}
330
68
100
AcDbModelDocViewStyle
 70
     0
  3
Imperial24
290
     0
100
AcDbSectionViewStyle
 70
     0
 71
     0
 90
       78
 71
     1
340
55
 62
   256
 40
0.24
340
0
340
0
 62
   256
 40
0.24
300
I, O, Q, S, X, Z
 40
0.48
 90
        3
 40
0.18
 90
        1
 71
     2
340
5D
 90
       25
 62
   256
340
5D
 90
       50
 62
   256
 40
0.24
 40
0.0
 40
0.24
 71
     3
340
55
 62
   256
 40
0.24
 90
        1
 40
0.75
 90
        1
300
%<\AcVar ViewType \f "%tc1">% %<\AcVar ViewSectionStartId>%-%<\AcVar ViewSectionEndId>%\PSCALE %<\AcVar ViewScale \f "%sn">%
 71
     4
 62
   256
 62
   257
300
ANSI31
 40
1.0
 90
        0
290
     0
290
     0
 90
        6
 40
0.0
 40
1.570796326794896
 40
0.2617993877991494
 40
1.308996938995747
 40
-0.2617993877991494
 40
1.832595714594046
  0
TABLESTYLE
  5
65
102
{ACAD_XDICTIONARY
360
23A
102
}
102
{ACAD_REACTORS
330
64
102
}
330
64
100
AcDbTableStyle
280
     0
  3
Standard
 70
     0
 71
     0
 40
0.06
 41
0.06
280
     0
281
     0
  7
Standard
140
0.18
170
     2
 62
     0
 63
     7
283
     0
 90
      512
 91
        0
  1

274
    -2
284
     1
 64
     0
275
    -2
285
     1
 65
     0
276
    -2
286
     1
 66
     0
277
    -2
287
     1
 67
     0
278
    -2
288
     1
 68
     0
279
    -2
289
     1
 69
     0
  7
Standard
140
0.25
170
     5
 62
     0
 63
     7
283
     0
 90
      512
 91
        0
  1

274
    -2
284
     1
 64
     0
275
    -2
285
     1
 65
     0
276
    -2
286
     1
 66
     0
277
    -2
287
     1
 67
     0
278
    -2
288
     1
 68
     0
279
    -2
289
     1
 69
     0
  7
Standard
140
0.18
170
     5
 62
     0
 63
     7
283
     0
 90
      512
 91
        0
  1

274
    -2
284
     1
 64
     0
275
    -2
285
     1
 65
     0
276
    -2
286
     1
 66
     0
277
    -2
287
     1
 67
     0
278
    -2
288
     1
 68
     0
279
    -2
289
     1
 69
     0
  0
VISUALSTYLE
  5
2F
102
{ACAD_REACTORS
330
29
102
}
330
29
100
AcDbVisualStyle
  2
2dWireframe
 70
     4
177
     3
291
     0
 70
    58
 90
        0
176
     1
 90
        2
176
     1
 90
        0
176
     1
 90
        0
176
     1
 40
0.6
176
     1
 40
30.0
176
     1
 62
     7
420
 16777215
176
     1
 90
        1
176
     1
 90
        4
176
     1
 62
     7
176
     1
 62
   257
176
     1
 90
        1
176
     1
 90
        1
176
     1
 40
1.0
176
     1
 90
        0
176
     1
 62
   257
176
     1
 40
1.0
176
     1
 90
        1
176
     1
 90
        6
176
     1
 90
        2
176
     1
 62
     7
176
     1
 90
        5
176
     1
 90
        0
176
     1
 90
        0
176
     1
290
     0
176
     1
 90
        1
176
     1
 40
0.0
176
     1
 90
        0
176
     1
290
     1
176
     1
290
     1
176
     1
290
     0
176
     1
290
     0
176
     1
290
     0
176
     1
290
     0
176
     1
290
     0
176
     1
290
     0
176
     1
290
     0
176
     1
 90
       50
176
     1
 40
0.0
176
     1
 40
1.0
176
     1
 90
        0
176
     1
 62
    18
420
        0
176
     1
 90
       50
176
     1
 90
        3
176
     1
 62
     5
420
      255
176
     1
290
     0
176
     1
 90
       50
176
     1
 90
       50
176
     1
 90
       50
176
     1
290
     0
176
     1
 90
       50
176
     1
 62
   256
176
     0
 40
1.0
176
     0
 90
        2
176
     1
  1
strokes_ogs.tif
176
     1
290
     0
176
     1
 40
1.0
176
     1
 40
1.0
176
     1
  0
VISUALSTYLE
  5
2E
102
{ACAD_REACTORS
330
29
102
}
330
29
100
AcDbVisualStyle
  2
Basic
 70
     7
177
     3
291
     1
 70
    58
 90
        1
176
     1
 90
        0
176
     1
 90
        1
176
     1
 90
        0
176
     1
 40
0.6
176
     1
 40
30.0
176
     1
 62
     7
420
 16777215
176
     1
 90
        0
176
     1
 90
        4
176
     1
 62
     7
176
     1
 62
   257
176
     1
 90
        1
176
     1
 90
        1
176
     1
 40
1.0
176
     1
 90
        8
176
     1
 62
     7
176
     1
 40
1.0
176
     1
 90
        1
176
     1
 90
        6
176
     1
 90
        2
176
     1
 62
     7
176
     1
 90
        5
176
     1
 90
        0
176
     1
 90
        0
176
     1
290
     0
176
     1
 90
        1
176
     1
 40
0.0
176
     1
 90
        0
176
     1
290
     0
176
     1
290
     1
176
     1
290
     1
176
     1
290
     0
176
     1
290
     0
176
     1
290
     0
176
     1
290
     0
176
     1
290
     0
176
     1
290
     0
176
     1
 90
       50
176
     1
 40
0.0
176
     1
 40
1.0
176
     1
 90
        0
176
     1
 62
    18
420
        0
176
     1
 90
       50
176
     1
 90
        3
176
     1
 62
     5
420
      255
176
     1
290
     0
176
     1
 90
       50
176
     1
 90
       50
176
     1
 90
       50
176
     1
290
     0
176
     1
 90
       50
176
     1
 62
   256
176
     0
 40
1.0
176
     0
 90
        2
176
     1
  1
strokes_ogs.tif
176
     1
290
     0
176
     1
 40
1.0
176
     1
 40
1.0
176
     1
  0
VISUALSTYLE
  5
35
102
{ACAD_REACTORS
330
29
102
}
330
29
100
AcDbVisualStyle
  2
Brighten
 70
    12
177
     3
291
     1
 70
    58
 90
        2
176
     1
 90
        2
176
     1
 90
        0
176
     1
 90
        0
176
     1
 40
0.6
176
     1
 40
30.0
176
     1
 62
     7
420
 16777215
176
     1
 90
        1
176
     1
 90
        4
176
     1
 62
     7
176
     1
 62
   257
176
     1
 90
        1
176
     1
 90
        1
176
     1
 40
1.0
176
     1
 90
        8
176
     1
 62
     7
176
     1
 40
1.0
176
     1
 90
        1
176
     1
 90
        6
176
     1
 90
        2
176
     1
 62
     7
176
     1
 90
        5
176
     1
 90
        0
176
     1
 90
        0
176
     1
290
     0
176
     1
 90
        1
176
     1
 40
50.0
176
     1
 90
        0
176
     1
290
     0
176
     1
290
     1
176
     1
290
     1
176
     1
290
     0
176
     1
290
     0
176
     1
290
     0
176
     1
290
     0
176
     1
290
     0
176
     1
290
     0
176
     1
 90
       50
176
     1
 40
0.0
176
     1
 40
1.0
176
     1
 90
        0
176
     1
 62
    18
420
        0
176
     1
 90
       50
176
     1
 90
        3
176
     1
 62
     5
420
      255
176
     1
290
     0
176
     1
 90
       50
176
     1
 90
       50
176
     1
 90
       50
176
     1
290
     0
176
     1
 90
       50
176
     1
 62
   256
176
     0
 40
1.0
176
     0
 90
        2
176
     1
  1
strokes_ogs.tif
176
     1
290
     0
176
     1
 40
1.0
176
     1
 40
1.0
176
     1
  0
VISUALSTYLE
  5
39
102
{ACAD_REACTORS
330
29
102
}
330
29
100
AcDbVisualStyle
  2
ColorChange
 70
    16
177
     3
291
     1
 70
    58
 90
        2
176
     1
 90
        2
176
     1
 90
        3
176
     1
 90
        0
176
     1
 40
0.6
176
     1
 40
30.0
176
     1
 62
     8
420
  8421504
176
     1
 90
        1
176
     1
 90
        4
176
     1
 62
     7
176
     1
 62
   257
176
     1
 90
        1
176
     1
 90
        1
176
     1
 40
1.0
176
     1
 90
        8
176
     1
 62
     8
420
  8421504
176
     1
 40
1.0
176
     1
 90
        1
176
     1
 90
        6
176
     1
 90
        2
176
     1
 62
     7
176
     1
 90
        5
176
     1
 90
        0
176
     1
 90
        0
176
     1
290
     0
176
     1
 90
        1
176
     1
 40
0.0
176
     1
 90
        0
176
     1
290
     0
176
     1
290
     1
176
     1
290
     1
176
     1
290
     0
176
     1
290
     0
176
     1
290
     0
176
     1
290
     0
176
     1
290
     0
176
     1
290
     0
176
     1
 90
       50
176
     1
 40
0.0
176
     1
 40
1.0
176
     1
 90
        0
176
     1
 62
    18
420
        0
176
     1
 90
       50
176
     1
 90
        3
176
     1
 62
     5
420
      255
176
     1
290
     0
176
     1
 90
       50
176
     1
 90
       50
176
     1
 90
       50
176
     1
290
     0
176
     1
 90
       50
176
     1
 62
   256
176
     0
 40
1.0
176
     0
 90
        2
176
     1
  1
strokes_ogs.tif
176
     1
290
     0
176
     1
 40
1.0
176
     1
 40
1.0
176
     1
  0
VISUALSTYLE
  5
32
102
{ACAD_REACTORS
330
29
102
}
330
29
100
AcDbVisualStyle
  2
Conceptual
 70
     9
177
     3
291
     0
 70
    58
 90
        3
176
     1
 90
        2
176
     1
 90
        0
176
     1
 90
        0
176
     1
 40
0.6
176
     1
 40
30.0
176
     1
 62
     7
420
 16777215
176
     1
 90
        2
176
     1
 90
        2
176
     1
 62
     7
176
     1
 62
   257
176
     1
 90
        1
176
     1
 90
        1
176
     1
 40
179.0
176
     1
 90
        8
176
     1
 62
     7
176
     1
 40
1.0
176
     1
 90
        1
176
     1
 90
        6
176
     1
 90
        2
176
     1
 62
     7
176
     1
 90
        3
176
     1
 90
        0
176
     1
 90
        0
176
     1
290
     0
176
     1
 90
        1
176
     1
 40
0.0
176
     1
 90
        0
176
     1
290
     0
176
     1
290
     1
176
     1
290
     1
176
     1
290
     0
176
     1
290
     0
176
     1
290
     0
176
     1
290
     0
176
     1
290
     0
176
     1
290
     0
176
     1
 90
       50
176
     1
 40
0.0
176
     1
 40
1.0
176
     1
 90
        0
176
     1
 62
    18
420
        0
176
     1
 90
       50
176
     1
 90
        3
176
     1
 62
     5
420
      255
176
     1
290
     0
176
     1
 90
       50
176
     1
 90
       50
176
     1
 90
       50
176
     1
290
     0
176
     1
 90
       50
176
     1
 62
   256
176
     0
 40
1.0
176
     0
 90
        2
176
     1
  1
strokes_ogs.tif
176
     1
290
     0
176
     1
 40
1.0
176
     1
 40
1.0
176
     1
  0
VISUALSTYLE
  5
34
102
{ACAD_REACTORS
330
29
102
}
330
29
100
AcDbVisualStyle
  2
Dim
 70
    11
177
     3
291
     1
 70
    58
 90
        2
176
     1
 90
        2
176
     1
 90
        0
176
     1
 90
        0
176
     1
 40
0.6
176
     1
 40
30.0
176
     1
 62
     7
420
 16777215
176
     1
 90
        1
176
     1
 90
        4
176
     1
 62
     7
176
     1
 62
   257
176
     1
 90
        1
176
     1
 90
        1
176
     1
 40
1.0
176
     1
 90
        8
176
     1
 62
     7
176
     1
 40
1.0
176
     1
 90
        1
176
     1
 90
        6
176
     1
 90
        2
176
     1
 62
     7
176
     1
 90
        5
176
     1
 90
        0
176
     1
 90
        0
176
     1
290
     0
176
     1
 90
        1
176
     1
 40
-50.0
176
     1
 90
        0
176
     1
290
     0
176
     1
290
     1
176
     1
290
     1
176
     1
290
     0
176
     1
290
     0
176
     1
290
     0
176
     1
290
     0
176
     1
290
     0
176
     1
290
     0
176
     1
 90
       50
176
     1
 40
0.0
176
     1
 40
1.0
176
     1
 90
        0
176
     1
 62
    18
420
        0
176
     1
 90
       50
176
     1
 90
        3
176
     1
 62
     5
420
      255
176
     1
290
     0
176
     1
 90
       50
176
     1
 90
       50
176
     1
 90
       50
176
     1
290
     0
176
     1
 90
       50
176
     1
 62
   256
176
     0
 40
1.0
176
     0
 90
        2
176
     1
  1
strokes_ogs.tif
176
     1
290
     0
176
     1
 40
1.0
176
     1
 40
1.0
176
     1
  0
VISUALSTYLE
  5
41
102
{ACAD_REACTORS
330
29
102
}
330
29
100
AcDbVisualStyle
  2
EdgeColorOff
 70
    22
177
     3
291
     1
 70
    58
 90
        2
176
     0
 90
        2
176
     0
 90
        0
176
     0
 90
        0
176
     0
 40
0.6
176
     0
 40
30.0
176
     0
 62
     7
420
 16777215
176
     0
 90
        1
176
     0
 90
        4
176
     0
 62
     7
176
     0
 62
   257
176
     0
 90
        1
176
     0
 90
        1
176
     0
 40
1.0
176
     0
 90
        8
176
     2
 62
     7
176
     0
 40
1.0
176
     0
 90
        1
176
     0
 90
        6
176
     0
 90
        2
176
     0
 62
     7
176
     0
 90
        5
176
     0
 90
        0
176
     0
 90
        0
176
     0
290
     0
176
     0
 90
        1
176
     0
 40
0.0
176
     0
 90
        0
176
     0
290
     0
176
     0
290
     1
176
     0
290
     1
176
     0
290
     0
176
     0
290
     0
176
     0
290
     0
176
     0
290
     0
176
     0
290
     0
176
     0
290
     0
176
     0
 90
       50
176
     0
 40
0.0
176
     0
 40
1.0
176
     0
 90
        0
176
     0
 62
    18
420
        0
176
     0
 90
       50
176
     0
 90
        3
176
     0
 62
     5
420
      255
176
     0
290
     0
176
     0
 90
       50
176
     0
 90
       50
176
     0
 90
       50
176
     0
290
     0
176
     0
 90
       50
176
     0
 62
   256
176
     0
 40
1.0
176
     0
 90
        2
176
     0
  1
strokes_ogs.tif
176
     0
290
     0
176
     0
 40
1.0
176
     0
 40
1.0
176
     0
  0
VISUALSTYLE
  5
38
102
{ACAD_REACTORS
330
29
102
}
330
29
100
AcDbVisualStyle
  2
Facepattern
 70
    15
177
     3
291
     1
 70
    58
 90
        2
176
     1
 90
        2
176
     1
 90
        0
176
     1
 90
        0
176
     1
 40
0.6
176
     1
 40
30.0
176
     1
 62
     7
420
 16777215
176
     1
 90
        1
176
     1
 90
        4
176
     1
 62
     7
176
     1
 62
   257
176
     1
 90
        1
176
     1
 90
        1
176
     1
 40
1.0
176
     1
 90
        8
176
     1
 62
     7
176
     1
 40
1.0
176
     1
 90
        1
176
     1
 90
        6
176
     1
 90
        2
176
     1
 62
     7
176
     1
 90
        5
176
     1
 90
        0
176
     1
 90
        0
176
     1
290
     0
176
     1
 90
        1
176
     1
 40
0.0
176
     1
 90
        0
176
     1
290
     0
176
     1
290
     1
176
     1
290
     1
176
     1
290
     0
176
     1
290
     0
176
     1
290
     0
176
     1
290
     0
176
     1
290
     0
176
     1
290
     0
176
     1
 90
       50
176
     1
 40
0.0
176
     1
 40
1.0
176
     1
 90
        0
176
     1
 62
    18
420
        0
176
     1
 90
       50
176
     1
 90
        3
176
     1
 62
     5
420
      255
176
     1
290
     0
176
     1
 90
       50
176
     1
 90
       50
176
     1
 90
       50
176
     1
290
     0
176
     1
 90
       50
176
     1
 62
   256
176
     0
 40
1.0
176
     0
 90
        2
176
     1
  1
strokes_ogs.tif
176
     1
290
     0
176
     1
 40
1.0
176
     1
 40
1.0
176
     1
  0
VISUALSTYLE
  5
2A
102
{ACAD_REACTORS
330
29
102
}
330
29
100
AcDbVisualStyle
  2
Flat
 70
     0
177
     3
291
     1
 70
    58
 90
        2
176
     1
 90
        1
176
     1
 90
        1
176
     1
 90
        2
176
     1
 40
0.6
176
     1
 40
30.0
176
     1
 62
     7
420
 16777215
176
     1
 90
        0
176
     1
 90
        0
176
     1
 62
     7
176
     1
 62
   257
176
     1
 90
        1
176
     1
 90
        1
176
     1
 40
1.0
176
     1
 90
        8
176
     1
 62
     7
176
     1
 40
1.0
176
     1
 90
        1
176
     1
 90
        6
176
     1
 90
        2
176
     1
 62
     7
176
     1
 90
        5
176
     1
 90
        0
176
     1
 90
        0
176
     1
290
     0
176
     1
 90
       13
176
     1
 40
0.0
176
     1
 90
        0
176
     1
290
     0
176
     1
290
     1
176
     1
290
     1
176
     1
290
     0
176
     1
290
     0
176
     1
290
     0
176
     1
290
     0
176
     1
290
     0
176
     1
290
     0
176
     1
 90
       50
176
     1
 40
0.0
176
     1
 40
1.0
176
     1
 90
        0
176
     1
 62
    18
420
        0
176
     1
 90
       50
176
     1
 90
        3
176
     1
 62
     5
420
      255
176
     1
290
     0
176
     1
 90
       50
176
     1
 90
       50
176
     1
 90
       50
176
     1
290
     0
176
     1
 90
       50
176
     1
 62
   256
176
     0
 40
1.0
176
     0
 90
        2
176
     1
  1
strokes_ogs.tif
176
     1
290
     0
176
     1
 40
1.0
176
     1
 40
1.0
176
     1
  0
VISUALSTYLE
  5
2B
102
{ACAD_REACTORS
330
29
102
}
330
29
100
AcDbVisualStyle
  2
FlatWithEdges
 70
     1
177
     3
291
     1
 70
    58
 90
        2
176
     1
 90
        1
176
     1
 90
        1
176
     1
 90
        2
176
     1
 40
0.6
176
     1
 40
30.0
176
     1
 62
     7
420
 16777215
176
     1
 90
        1
176
     1
 90
        0
176
     1
 62
     7
176
     1
 62
   257
176
     1
 90
        1
176
     1
 90
        1
176
     1
 40
1.0
176
     1
 90
        0
176
     1
 62
   257
176
     1
 40
1.0
176
     1
 90
        1
176
     1
 90
        6
176
     1
 90
        2
176
     1
 62
     7
176
     1
 90
        5
176
     1
 90
        0
176
     1
 90
        0
176
     1
290
     0
176
     1
 90
       13
176
     1
 40
0.0
176
     1
 90
        0
176
     1
290
     0
176
     1
290
     1
176
     1
290
     1
176
     1
290
     0
176
     1
290
     0
176
     1
290
     0
176
     1
290
     0
176
     1
290
     0
176
     1
290
     0
176
     1
 90
       50
176
     1
 40
0.0
176
     1
 40
1.0
176
     1
 90
        0
176
     1
 62
    18
420
        0
176
     1
 90
       50
176
     1
 90
        3
176
     1
 62
     5
420
      255
176
     1
290
     0
176
     1
 90
       50
176
     1
 90
       50
176
     1
 90
       50
176
     1
290
     0
176
     1
 90
       50
176
     1
 62
   256
176
     0
 40
1.0
176
     0
 90
        2
176
     1
  1
strokes_ogs.tif
176
     1
290
     0
176
     1
 40
1.0
176
     1
 40
1.0
176
     1
  0
VISUALSTYLE
  5
2C
102
{ACAD_REACTORS
330
29
102
}
330
29
100
AcDbVisualStyle
  2
Gouraud
 70
     2
177
     3
291
     1
 70
    58
 90
        2
176
     1
 90
        2
176
     1
 90
        1
176
     1
 90
        2
176
     1
 40
0.6
176
     1
 40
30.0
176
     1
 62
     7
420
 16777215
176
     1
 90
        0
176
     1
 90
        0
176
     1
 62
     7
176
     1
 62
   257
176
     1
 90
        1
176
     1
 90
        1
176
     1
 40
1.0
176
     1
 90
        0
176
     1
 62
     7
176
     1
 40
1.0
176
     1
 90
        1
176
     1
 90
        6
176
     1
 90
        2
176
     1
 62
     7
176
     1
 90
        5
176
     1
 90
        0
176
     1
 90
        0
176
     1
290
     0
176
     1
 90
       13
176
     1
 40
0.0
176
     1
 90
        0
176
     1
290
     0
176
     1
290
     1
176
     1
290
     1
176
     1
290
     0
176
     1
290
     0
176
     1
290
     0
176
     1
290
     0
176
     1
290
     0
176
     1
290
     0
176
     1
 90
       50
176
     1
 40
0.0
176
     1
 40
1.0
176
     1
 90
        0
176
     1
 62
    18
420
        0
176
     1
 90
       50
176
     1
 90
        3
176
     1
 62
     5
420
      255
176
     1
290
     0
176
     1
 90
       50
176
     1
 90
       50
176
     1
 90
       50
176
     1
290
     0
176
     1
 90
       50
176
     1
 62
   256
176
     0
 40
1.0
176
     0
 90
        2
176
     1
  1
strokes_ogs.tif
176
     1
290
     0
176
     1
 40
1.0
176
     1
 40
1.0
176
     1
  0
VISUALSTYLE
  5
2D
102
{ACAD_REACTORS
330
29
102
}
330
29
100
AcDbVisualStyle
  2
GouraudWithEdges
 70
     3
177
     3
291
     1
 70
    58
 90
        2
176
     1
 90
        2
176
     1
 90
        1
176
     1
 90
        2
176
     1
 40
0.6
176
     1
 40
30.0
176
     1
 62
     7
420
 16777215
176
     1
 90
        1
176
     1
 90
        0
176
     1
 62
     7
176
     1
 62
   257
176
     1
 90
        1
176
     1
 90
        1
176
     1
 40
1.0
176
     1
 90
        0
176
     1
 62
   257
176
     1
 40
1.0
176
     1
 90
        1
176
     1
 90
        6
176
     1
 90
        2
176
     1
 62
     7
176
     1
 90
        5
176
     1
 90
        0
176
     1
 90
        0
176
     1
290
     0
176
     1
 90
       13
176
     1
 40
0.0
176
     1
 90
        0
176
     1
290
     0
176
     1
290
     1
176
     1
290
     1
176
     1
290
     0
176
     1
290
     0
176
     1
290
     0
176
     1
290
     0
176
     1
290
     0
176
     1
290
     0
176
     1
 90
       50
176
     1
 40
0.0
176
     1
 40
1.0
176
     1
 90
        0
176
     1
 62
    18
420
        0
176
     1
 90
       50
176
     1
 90
        3
176
     1
 62
     5
420
      255
176
     1
290
     0
176
     1
 90
       50
176
     1
 90
       50
176
     1
 90
       50
176
     1
290
     0
176
     1
 90
       50
176
     1
 62
   256
176
     0
 40
1.0
176
     0
 90
        2
176
     1
  1
strokes_ogs.tif
176
     1
290
     0
176
     1
 40
1.0
176
     1
 40
1.0
176
     1
  0
VISUALSTYLE
  5
31
102
{ACAD_REACTORS
330
29
102
}
330
29
100
AcDbVisualStyle
  2
Hidden
 70
     6
177
     3
291
     0
 70
    58
 90
        1
176
     1
 90
        2
176
     1
 90
        2
176
     1
 90
        0
176
     1
 40
0.6
176
     1
 40
30.0
176
     1
 62
     7
420
 16777215
176
     1
 90
        2
176
     1
 90
        2
176
     1
 62
     7
176
     1
 62
   257
176
     1
 90
        2
176
     1
 90
        1
176
     1
 40
40.0
176
     1
 90
        0
176
     1
 62
   257
176
     1
 40
1.0
176
     1
 90
        1
176
     1
 90
        6
176
     1
 90
        2
176
     1
 62
     7
176
     1
 90
        3
176
     1
 90
        0
176
     1
 90
        0
176
     1
290
     0
176
     1
 90
        1
176
     1
 40
0.0
176
     1
 90
        0
176
     1
290
     0
176
     1
290
     1
176
     1
290
     1
176
     1
290
     0
176
     1
290
     0
176
     1
290
     0
176
     1
290
     0
176
     1
290
     0
176
     1
290
     0
176
     1
 90
       50
176
     1
 40
0.0
176
     1
 40
1.0
176
     1
 90
        0
176
     1
 62
    18
420
        0
176
     1
 90
       50
176
     1
 90
        3
176
     1
 62
     5
420
      255
176
     1
290
     0
176
     1
 90
       50
176
     1
 90
       50
176
     1
 90
       50
176
     1
290
     0
176
     1
 90
       50
176
     1
 62
   256
176
     0
 40
1.0
176
     0
 90
        2
176
     1
  1
strokes_ogs.tif
176
     1
290
     0
176
     1
 40
1.0
176
     1
 40
1.0
176
     1
  0
VISUALSTYLE
  5
3F
102
{ACAD_REACTORS
330
29
102
}
330
29
100
AcDbVisualStyle
  2
JitterOff
 70
    20
177
     3
291
     1
 70
    58
 90
        2
176
     0
 90
        2
176
     0
 90
        0
176
     0
 90
        0
176
     0
 40
0.6
176
     0
 40
30.0
176
     0
 62
     7
420
 16777215
176
     0
 90
        1
176
     0
 90
        4
176
     0
 62
     7
176
     0
 62
   257
176
     0
 90
        1
176
     0
 90
        1
176
     0
 40
1.0
176
     0
 90
       10
176
     2
 62
     7
176
     0
 40
1.0
176
     0
 90
        1
176
     0
 90
        6
176
     0
 90
        2
176
     0
 62
     7
176
     0
 90
        5
176
     0
 90
        0
176
     0
 90
        0
176
     0
290
     0
176
     0
 90
        1
176
     0
 40
0.0
176
     0
 90
        0
176
     0
290
     0
176
     0
290
     1
176
     0
290
     1
176
     0
290
     0
176
     0
290
     0
176
     0
290
     0
176
     0
290
     0
176
     0
290
     0
176
     0
290
     0
176
     0
 90
       50
176
     0
 40
0.0
176
     0
 40
1.0
176
     0
 90
        0
176
     0
 62
    18
420
        0
176
     0
 90
       50
176
     0
 90
        3
176
     0
 62
     5
420
      255
176
     0
290
     0
176
     0
 90
       50
176
     0
 90
       50
176
     0
 90
       50
176
     0
290
     0
176
     0
 90
       50
176
     0
 62
   256
176
     0
 40
1.0
176
     0
 90
        2
176
     0
  1
strokes_ogs.tif
176
     0
290
     0
176
     0
 40
1.0
176
     0
 40
1.0
176
     0
  0
VISUALSTYLE
  5
37
102
{ACAD_REACTORS
330
29
102
}
330
29
100
AcDbVisualStyle
  2
Linepattern
 70
    14
177
     3
291
     1
 70
    58
 90
        2
176
     1
 90
        2
176
     1
 90
        0
176
     1
 90
        0
176
     1
 40
0.6
176
     1
 40
30.0
176
     1
 62
     7
420
 16777215
176
     1
 90
        1
176
     1
 90
        4
176
     1
 62
     7
176
     1
 62
   257
176
     1
 90
        7
176
     1
 90
        7
176
     1
 40
1.0
176
     1
 90
        8
176
     1
 62
     7
176
     1
 40
1.0
176
     1
 90
        1
176
     1
 90
        6
176
     1
 90
        2
176
     1
 62
     7
176
     1
 90
        5
176
     1
 90
        0
176
     1
 90
        0
176
     1
290
     0
176
     1
 90
        1
176
     1
 40
0.0
176
     1
 90
        0
176
     1
290
     0
176
     1
290
     1
176
     1
290
     1
176
     1
290
     0
176
     1
290
     0
176
     1
290
     0
176
     1
290
     0
176
     1
290
     0
176
     1
290
     0
176
     1
 90
       50
176
     1
 40
0.0
176
     1
 40
1.0
176
     1
 90
        0
176
     1
 62
    18
420
        0
176
     1
 90
       50
176
     1
 90
        3
176
     1
 62
     5
420
      255
176
     1
290
     0
176
     1
 90
       50
176
     1
 90
       50
176
     1
 90
       50
176
     1
290
     0
176
     1
 90
       50
176
     1
 62
   256
176
     0
 40
1.0
176
     0
 90
        2
176
     1
  1
strokes_ogs.tif
176
     1
290
     0
176
     1
 40
1.0
176
     1
 40
1.0
176
     1
  0
VISUALSTYLE
  5
40
102
{ACAD_REACTORS
330
29
102
}
330
29
100
AcDbVisualStyle
  2
OverhangOff
 70
    21
177
     3
291
     1
 70
    58
 90
        2
176
     0
 90
        2
176
     0
 90
        0
176
     0
 90
        0
176
     0
 40
0.6
176
     0
 40
30.0
176
     0
 62
     7
420
 16777215
176
     0
 90
        1
176
     0
 90
        4
176
     0
 62
     7
176
     0
 62
   257
176
     0
 90
        1
176
     0
 90
        1
176
     0
 40
1.0
176
     0
 90
        9
176
     2
 62
     7
176
     0
 40
1.0
176
     0
 90
        1
176
     0
 90
        6
176
     0
 90
        2
176
     0
 62
     7
176
     0
 90
        5
176
     0
 90
        0
176
     0
 90
        0
176
     0
290
     0
176
     0
 90
        1
176
     0
 40
0.0
176
     0
 90
        0
176
     0
290
     0
176
     0
290
     1
176
     0
290
     1
176
     0
290
     0
176
     0
290
     0
176
     0
290
     0
176
     0
290
     0
176
     0
290
     0
176
     0
290
     0
176
     0
 90
       50
176
     0
 40
0.0
176
     0
 40
1.0
176
     0
 90
        0
176
     0
 62
    18
420
        0
176
     0
 90
       50
176
     0
 90
        3
176
     0
 62
     5
420
      255
176
     0
290
     0
176
     0
 90
       50
176
     0
 90
       50
176
     0
 90
       50
176
     0
290
     0
176
     0
 90
       50
176
     0
 62
   256
176
     0
 40
1.0
176
     0
 90
        2
176
     0
  1
strokes_ogs.tif
176
     0
290
     0
176
     0
 40
1.0
176
     0
 40
1.0
176
     0
  0
VISUALSTYLE
  5
33
102
{ACAD_REACTORS
330
29
102
}
330
29
100
AcDbVisualStyle
  2
Realistic
 70
     8
177
     3
291
     0
 70
    58
 90
        2
176
     1
 90
        3
176
     1
 90
        0
176
     1
 90
        2
176
     1
 40
0.6
176
     1
 40
30.0
176
     1
 62
     7
420
 16777215
176
     1
 90
        0
176
     1
 90
        0
176
     1
 62
     7
176
     1
 62
   257
176
     1
 90
        1
176
     1
 90
        1
176
     1
 40
1.0
176
     1
 90
        8
176
     1
 62
   257
176
     1
 40
1.0
176
     1
 90
        1
176
     1
 90
        6
176
     1
 90
        2
176
     1
 62
     7
176
     1
 90
        3
176
     1
 90
        0
176
     1
 90
        0
176
     1
290
     0
176
     1
 90
       13
176
     1
 40
0.0
176
     1
 90
        0
176
     1
290
     0
176
     1
290
     1
176
     1
290
     1
176
     1
290
     0
176
     1
290
     0
176
     1
290
     0
176
     1
290
     0
176
     1
290
     0
176
     1
290
     0
176
     1
 90
       50
176
     1
 40
0.0
176
     1
 40
1.0
176
     1
 90
        0
176
     1
 62
    18
420
        0
176
     1
 90
       50
176
     1
 90
        3
176
     1
 62
     5
420
      255
176
     1
290
     0
176
     1
 90
       50
176
     1
 90
       50
176
     1
 90
       50
176
     1
290
     0
176
     1
 90
       50
176
     1
 62
   256
176
     0
 40
1.0
176
     0
 90
        2
176
     1
  1
strokes_ogs.tif
176
     1
290
     0
176
     1
 40
1.0
176
     1
 40
1.0
176
     1
  0
VISUALSTYLE
  5
3E
102
{ACAD_REACTORS
330
29
102
}
330
29
100
AcDbVisualStyle
  2
Shaded
 70
    27
177
     3
291
     0
 70
    58
 90
        2
176
     1
 90
        2
176
     1
 90
        1
176
     1
 90
        2
176
     1
 40
0.6
176
     1
 40
30.0
176
     1
 62
     7
420
 16777215
176
     1
 90
        0
176
     1
 90
        4
176
     1
 62
     7
176
     1
 62
   257
176
     1
 90
        1
176
     1
 90
        1
176
     1
 40
1.0
176
     1
 90
        8
176
     1
 62
   257
176
     1
 40
1.0
176
     1
 90
        1
176
     1
 90
        6
176
     1
 90
        2
176
     1
 62
     8
420
  7895160
176
     1
 90
        3
176
     1
 90
        0
176
     1
 90
        0
176
     1
290
     0
176
     1
 90
        5
176
     1
 40
0.0
176
     1
 90
        0
176
     1
290
     0
176
     1
290
     1
176
     1
290
     1
176
     1
290
     0
176
     1
290
     0
176
     1
290
     0
176
     1
290
     0
176
     1
290
     0
176
     1
290
     0
176
     1
 90
       50
176
     1
 40
0.0
176
     1
 40
1.0
176
     1
 90
        0
176
     1
 62
    18
420
        0
176
     1
 90
       50
176
     1
 90
        3
176
     1
 62
     5
420
      255
176
     1
290
     0
176
     1
 90
       50
176
     1
 90
       50
176
     1
 90
       50
176
     1
290
     0
176
     1
 90
       50
176
     1
 62
   256
176
     0
 40
1.0
176
     0
 90
        2
176
     1
  1
strokes_ogs.tif
176
     1
290
     0
176
     1
 40
1.0
176
     1
 40
1.0
176
     1
  0
VISUALSTYLE
  5
3D
102
{ACAD_REACTORS
330
29
102
}
330
29
100
AcDbVisualStyle
  2
Shaded with edges
 70
    26
177
     3
291
     0
 70
    58
 90
        2
176
     1
 90
        2
176
     1
 90
        1
176
     1
 90
        2
176
     1
 40
0.6
176
     1
 40
30.0
176
     1
 62
     7
420
 16777215
176
     1
 90
        1
176
     1
 90
       10
176
     1
 62
     7
176
     1
 62
   257
176
     1
 90
        2
176
     1
 90
        1
176
     1
 40
1.0
176
     1
 90
        8
176
     1
 62
   257
176
     1
 40
1.0
176
     1
 90
        1
176
     1
 90
        6
176
     1
 90
        2
176
     1
 62
     7
176
     1
 90
        3
176
     1
 90
        0
176
     1
 90
        0
176
     1
290
     0
176
     1
 90
        5
176
     1
 40
0.0
176
     1
 90
        0
176
     1
290
     0
176
     1
290
     1
176
     1
290
     1
176
     1
290
     0
176
     1
290
     0
176
     1
290
     0
176
     1
290
     0
176
     1
290
     0
176
     1
290
     0
176
     1
 90
       50
176
     1
 40
0.0
176
     1
 40
1.0
176
     1
 90
        0
176
     1
 62
    18
420
        0
176
     1
 90
       50
176
     1
 90
        3
176
     1
 62
     5
420
      255
176
     1
290
     0
176
     1
 90
       50
176
     1
 90
       50
176
     1
 90
       50
176
     1
290
     0
176
     1
 90
       50
176
     1
 62
   256
176
     0
 40
1.0
176
     0
 90
        2
176
     1
  1
strokes_ogs.tif
176
     1
290
     0
176
     1
 40
1.0
176
     1
 40
1.0
176
     1
  0
VISUALSTYLE
  5
3A
102
{ACAD_REACTORS
330
29
102
}
330
29
100
AcDbVisualStyle
  2
Shades of Gray
 70
    23
177
     3
291
     0
 70
    58
 90
        2
176
     1
 90
        2
176
     1
 90
        3
176
     1
 90
        0
176
     1
 40
0.6
176
     1
 40
30.0
176
     1
 62
     7
420
 16777215
176
     1
 90
        2
176
     1
 90
        2
176
     1
 62
     7
176
     1
 62
     7
176
     1
 90
        1
176
     1
 90
        1
176
     1
 40
40.0
176
     1
 90
        8
176
     1
 62
     7
176
     1
 40
1.0
176
     1
 90
        1
176
     1
 90
        6
176
     1
 90
        2
176
     1
 62
     7
176
     1
 90
        3
176
     1
 90
        0
176
     1
 90
        0
176
     1
290
     0
176
     1
 90
        1
176
     1
 40
0.0
176
     1
 90
        0
176
     1
290
     0
176
     1
290
     1
176
     1
290
     1
176
     1
290
     0
176
     1
290
     0
176
     1
290
     0
176
     1
290
     0
176
     1
290
     0
176
     1
290
     0
176
     1
 90
       50
176
     1
 40
0.0
176
     1
 40
1.0
176
     1
 90
        0
176
     1
 62
    18
420
        0
176
     1
 90
       50
176
     1
 90
        3
176
     1
 62
     5
420
      255
176
     1
290
     0
176
     1
 90
       50
176
     1
 90
       50
176
     1
 90
       50
176
     1
290
     0
176
     1
 90
       50
176
     1
 62
   256
176
     0
 40
1.0
176
     0
 90
        2
176
     1
  1
strokes_ogs.tif
176
     1
290
     0
176
     1
 40
1.0
176
     1
 40
1.0
176
     1
  0
VISUALSTYLE
  5
3B
102
{ACAD_REACTORS
330
29
102
}
330
29
100
AcDbVisualStyle
  2
Sketchy
 70
    24
177
     3
291
     0
 70
    58
 90
        1
176
     1
 90
        2
176
     1
 90
        2
176
     1
 90
        0
176
     1
 40
0.6
176
     1
 40
30.0
176
     1
 62
     7
420
 16777215
176
     1
 90
        2
176
     1
 90
        2
176
     1
 62
     7
176
     1
 62
     7
176
     1
 90
        1
176
     1
 90
        1
176
     1
 40
40.0
176
     1
 90
       11
176
     1
 62
     7
176
     1
 40
1.0
176
     1
 90
        1
176
     1
 90
        6
176
     1
 90
        2
176
     1
 62
     7
176
     1
 90
        6
176
     1
 90
        0
176
     1
 90
        0
176
     1
290
     0
176
     1
 90
        1
176
     1
 40
0.0
176
     1
 90
        0
176
     1
290
     0
176
     1
290
     1
176
     1
290
     1
176
     1
290
     0
176
     1
290
     0
176
     1
290
     0
176
     1
290
     0
176
     1
290
     0
176
     1
290
     0
176
     1
 90
       50
176
     1
 40
0.0
176
     1
 40
1.0
176
     1
 90
        0
176
     1
 62
    18
420
        0
176
     1
 90
       50
176
     1
 90
        3
176
     1
 62
     5
420
      255
176
     1
290
     0
176
     1
 90
       50
176
     1
 90
       50
176
     1
 90
       50
176
     1
290
     0
176
     1
 90
       50
176
     1
 62
   256
176
     0
 40
1.0
176
     0
 90
        2
176
     1
  1
strokes_ogs.tif
176
     1
290
     0
176
     1
 40
1.0
176
     1
 40
1.0
176
     1
  0
VISUALSTYLE
  5
36
102
{ACAD_REACTORS
330
29
102
}
330
29
100
AcDbVisualStyle
  2
Thicken
 70
    13
177
     3
291
     1
 70
    58
 90
        2
176
     1
 90
        2
176
     1
 90
        0
176
     1
 90
        0
176
     1
 40
0.6
176
     1
 40
30.0
176
     1
 62
     7
420
 16777215
176
     1
 90
        1
176
     1
 90
        4
176
     1
 62
     7
176
     1
 62
   257
176
     1
 90
        1
176
     1
 90
        1
176
     1
 40
1.0
176
     1
 90
       12
176
     1
 62
     7
176
     1
 40
1.0
176
     1
 90
        1
176
     1
 90
        6
176
     1
 90
        2
176
     1
 62
     7
176
     1
 90
        5
176
     1
 90
        0
176
     1
 90
        0
176
     1
290
     0
176
     1
 90
        1
176
     1
 40
0.0
176
     1
 90
        0
176
     1
290
     0
176
     1
290
     1
176
     1
290
     1
176
     1
290
     0
176
     1
290
     0
176
     1
290
     0
176
     1
290
     0
176
     1
290
     0
176
     1
290
     0
176
     1
 90
       50
176
     1
 40
0.0
176
     1
 40
1.0
176
     1
 90
        0
176
     1
 62
    18
420
        0
176
     1
 90
       50
176
     1
 90
        3
176
     1
 62
     5
420
      255
176
     1
290
     0
176
     1
 90
       50
176
     1
 90
       50
176
     1
 90
       50
176
     1
290
     0
176
     1
 90
       50
176
     1
 62
   256
176
     0
 40
1.0
176
     0
 90
        2
176
     1
  1
strokes_ogs.tif
176
     1
290
     0
176
     1
 40
1.0
176
     1
 40
1.0
176
     1
  0
VISUALSTYLE
  5
30
102
{ACAD_REACTORS
330
29
102
}
330
29
100
AcDbVisualStyle
  2
Wireframe
 70
     5
177
     3
291
     0
 70
    58
 90
        0
176
     1
 90
        2
176
     1
 90
        0
176
     1
 90
        0
176
     1
 40
0.6
176
     1
 40
30.0
176
     1
 62
     7
420
 16777215
176
     1
 90
        1
176
     1
 90
        4
176
     1
 62
     7
176
     1
 62
   257
176
     1
 90
        1
176
     1
 90
        1
176
     1
 40
1.0
176
     1
 90
        0
176
     1
 62
   257
176
     1
 40
1.0
176
     1
 90
        1
176
     1
 90
        6
176
     1
 90
        2
176
     1
 62
     7
176
     1
 90
        3
176
     1
 90
        0
176
     1
 90
        0
176
     1
290
     0
176
     1
 90
        1
176
     1
 40
0.0
176
     1
 90
        0
176
     1
290
     0
176
     1
290
     1
176
     1
290
     1
176
     1
290
     0
176
     1
290
     0
176
     1
290
     0
176
     1
290
     0
176
     1
290
     0
176
     1
290
     0
176
     1
 90
       50
176
     1
 40
0.0
176
     1
 40
1.0
176
     1
 90
        0
176
     1
 62
    18
420
        0
176
     1
 90
       50
176
     1
 90
        3
176
     1
 62
     5
420
      255
176
     1
290
     0
176
     1
 90
       50
176
     1
 90
       50
176
     1
 90
       50
176
     1
290
     0
176
     1
 90
       50
176
     1
 62
   256
176
     0
 40
1.0
176
     0
 90
        2
176
     1
  1
strokes_ogs.tif
176
     1
290
     0
176
     1
 40
1.0
176
     1
 40
1.0
176
     1
  0
VISUALSTYLE
  5
3C
102
{ACAD_REACTORS
330
29
102
}
330
29
100
AcDbVisualStyle
  2
X-Ray
 70
    25
177
     3
291
     0
 70
    58
 90
        2
176
     1
 90
        2
176
     1
 90
        1
176
     1
 90
        1
176
     1
 40
0.5
176
     1
 40
30.0
176
     1
 62
     7
420
 16777215
176
     1
 90
        1
176
     1
 90
        0
176
     1
 62
     7
176
     1
 62
   257
176
     1
 90
        1
176
     1
 90
        1
176
     1
 40
1.0
176
     1
 90
        8
176
     1
 62
     7
176
     1
 40
1.0
176
     1
 90
        1
176
     1
 90
        6
176
     1
 90
        2
176
     1
 62
     7
176
     1
 90
        3
176
     1
 90
        0
176
     1
 90
        0
176
     1
290
     0
176
     1
 90
       13
176
     1
 40
0.0
176
     1
 90
        0
176
     1
290
     0
176
     1
290
     1
176
     1
290
     1
176
     1
290
     0
176
     1
290
     0
176
     1
290
     0
176
     1
290
     0
176
     1
290
     0
176
     1
290
     0
176
     1
 90
       50
176
     1
 40
0.0
176
     1
 40
1.0
176
     1
 90
        0
176
     1
 62
    18
420
        0
176
     1
 90
       50
176
     1
 90
        3
176
     1
 62
     5
420
      255
176
     1
290
     0
176
     1
 90
       50
176
     1
 90
       50
176
     1
 90
       50
176
     1
290
     0
176
     1
 90
       50
176
     1
 62
   256
176
     0
 40
1.0
176
     0
 90
        2
176
     1
  1
strokes_ogs.tif
176
     1
290
     0
176
     1
 40
1.0
176
     1
 40
1.0
176
     1
  0
DICTIONARYVAR
  5
D6
102
{ACAD_REACTORS
330
D1
102
}
330
D1
100
DictionaryVariables
280
     0
  1
1:1
  0
DICTIONARYVAR
  5
D3
102
{ACAD_REACTORS
330
D1
102
}
330
D1
100
DictionaryVariables
280
     0
  1
STANDARD
  0
DICTIONARYVAR
  5
D2
102
{ACAD_REACTORS
330
D1
102
}
330
D1
100
DictionaryVariables
280
     0
  1
STANDARD
  0
DICTIONARYVAR
  5
D4
102
{ACAD_REACTORS
330
D1
102
}
330
D1
100
DictionaryVariables
280
     0
  1
Imperial24
  0
DICTIONARYVAR
  5
D5
102
{ACAD_REACTORS
330
D1
102
}
330
D1
100
DictionaryVariables
280
     0
  1
Imperial24
  0
XRECORD
  5
C9
102
{ACAD_REACTORS
330
C7
102
}
330
C7
100
AcDbXrecord
280
     1
  1
BUILDING_ID
  1
Faucet_Bar_Pull_Down-American_Standard-Beale-4931
  1
FLOOR_ID
  1
35
  0
XRECORD
  5
C8
102
{ACAD_REACTORS
330
C7
102
}
330
C7
100
AcDbXrecord
280
     1
  1
-2001160
  1
Plumbing Fixtures
  0
DICTIONARY
  5
CE
330
6B
100
AcDbDictionary
280
     1
281
     1
  3
ACAD_XREC_ROUNDTRIP
360
23D
  0
DICTIONARY
  5
1A
330
19
100
AcDbDictionary
280
     1
281
     1
  3
BUMPTILE
360
1C
  3
DIFFUSETILE
360
1B
  3
OPACITYTILE
360
1F
  3
REFLECTIONTILE
360
1E
  3
REFRACTIONTILE
360
20
  3
SPECULARTILE
360
1D
  0
DICTIONARY
  5
12
330
11
100
AcDbDictionary
280
     1
281
     1
  3
BUMPTILE
360
14
  3
DIFFUSETILE
360
13
  3
OPACITYTILE
360
17
  3
REFLECTIONTILE
360
16
  3
REFRACTIONTILE
360
18
  3
SPECULARTILE
360
15
  0
DICTIONARY
  5
22
330
21
100
AcDbDictionary
280
     1
281
     1
  3
BUMPTILE
360
24
  3
DIFFUSETILE
360
23
  3
OPACITYTILE
360
27
  3
REFLECTIONTILE
360
26
  3
REFRACTIONTILE
360
28
  3
SPECULARTILE
360
25
  0
DICTIONARY
  5
CC
330
69
100
AcDbDictionary
280
     1
281
     1
  3
ACAD_XREC_ROUNDTRIP
360
23C
  0
DICTIONARY
  5
23A
330
65
100
AcDbDictionary
280
     1
281
     1
  3
ACAD_ROUNDTRIP_2008_TABLESTYLE_CELLSTYLEMAP
360
23B
  0
XRECORD
  5
23D
102
{ACAD_REACTORS
330
CE
102
}
330
CE
100
AcDbXrecord
280
     1
102
DISPLAYNAME
  1
Imperial24
102
FLAGS
 90
        0
  0
XRECORD
  5
1C
102
{ACAD_REACTORS
330
1A
102
}
330
1A
100
AcDbXrecord
280
     1
270
     1
271
     1
  0
XRECORD
  5
1B
102
{ACAD_REACTORS
330
1A
102
}
330
1A
100
AcDbXrecord
280
     1
270
     1
271
     1
  0
XRECORD
  5
1F
102
{ACAD_REACTORS
330
1A
102
}
330
1A
100
AcDbXrecord
280
     1
270
     1
271
     1
  0
XRECORD
  5
1E
102
{ACAD_REACTORS
330
1A
102
}
330
1A
100
AcDbXrecord
280
     1
270
     1
271
     1
  0
XRECORD
  5
20
102
{ACAD_REACTORS
330
1A
102
}
330
1A
100
AcDbXrecord
280
     1
270
     1
271
     1
  0
XRECORD
  5
1D
102
{ACAD_REACTORS
330
1A
102
}
330
1A
100
AcDbXrecord
280
     1
270
     1
271
     1
  0
XRECORD
  5
14
102
{ACAD_REACTORS
330
12
102
}
330
12
100
AcDbXrecord
280
     1
270
     1
271
     1
  0
XRECORD
  5
13
102
{ACAD_REACTORS
330
12
102
}
330
12
100
AcDbXrecord
280
     1
270
     1
271
     1
  0
XRECORD
  5
17
102
{ACAD_REACTORS
330
12
102
}
330
12
100
AcDbXrecord
280
     1
270
     1
271
     1
  0
XRECORD
  5
16
102
{ACAD_REACTORS
330
12
102
}
330
12
100
AcDbXrecord
280
     1
270
     1
271
     1
  0
XRECORD
  5
18
102
{ACAD_REACTORS
330
12
102
}
330
12
100
AcDbXrecord
280
     1
270
     1
271
     1
  0
XRECORD
  5
15
102
{ACAD_REACTORS
330
12
102
}
330
12
100
AcDbXrecord
280
     1
270
     1
271
     1
  0
XRECORD
  5
24
102
{ACAD_REACTORS
330
22
102
}
330
22
100
AcDbXrecord
280
     1
270
     1
271
     1
  0
XRECORD
  5
23
102
{ACAD_REACTORS
330
22
102
}
330
22
100
AcDbXrecord
280
     1
270
     1
271
     1
  0
XRECORD
  5
27
102
{ACAD_REACTORS
330
22
102
}
330
22
100
AcDbXrecord
280
     1
270
     1
271
     1
  0
XRECORD
  5
26
102
{ACAD_REACTORS
330
22
102
}
330
22
100
AcDbXrecord
280
     1
270
     1
271
     1
  0
XRECORD
  5
28
102
{ACAD_REACTORS
330
22
102
}
330
22
100
AcDbXrecord
280
     1
270
     1
271
     1
  0
XRECORD
  5
25
102
{ACAD_REACTORS
330
22
102
}
330
22
100
AcDbXrecord
280
     1
270
     1
271
     1
  0
XRECORD
  5
23C
102
{ACAD_REACTORS
330
CC
102
}
330
CC
100
AcDbXrecord
280
     1
102
DISPLAYNAME
  1
Imperial24
102
FLAGS
 90
        0
  0
CELLSTYLEMAP
  5
23B
102
{ACAD_REACTORS
330
23A
102
}
330
23A
100
AcDbCellStyleMap
 90
        3
300
CELLSTYLE
  1
TABLEFORMAT_BEGIN
 90
        5
170
     1
 91
        0
 92
    32768
 62
   257
 93
        1
300
CONTENTFORMAT
  1
CONTENTFORMAT_BEGIN
 90
        0
 91
        0
 92
      512
 93
        0
300

 40
0.0
140
1.0
 94
        5
 62
     0
340
55
144
0.25
309
CONTENTFORMAT_END
171
     0
 94
        0
309
TABLEFORMAT_END
  1
CELLSTYLE_BEGIN
 90
        1
 91
        1
300
_TITLE
309
CELLSTYLE_END
300
CELLSTYLE
  1
TABLEFORMAT_BEGIN
 90
        5
170
     1
 91
        0
 92
        0
 62
   257
 93
        1
300
CONTENTFORMAT
  1
CONTENTFORMAT_BEGIN
 90
        0
 91
        0
 92
      512
 93
        0
300

 40
0.0
140
1.0
 94
        5
 62
     0
340
55
144
0.18
309
CONTENTFORMAT_END
171
     0
 94
        0
309
TABLEFORMAT_END
  1
CELLSTYLE_BEGIN
 90
        2
 91
        1
300
_HEADER
309
CELLSTYLE_END
300
CELLSTYLE
  1
TABLEFORMAT_BEGIN
 90
        5
170
     1
 91
        0
 92
        0
 62
   257
 93
        1
300
CONTENTFORMAT
  1
CONTENTFORMAT_BEGIN
 90
        0
 91
        0
 92
      512
 93
        0
300

 40
0.0
140
1.0
 94
        2
 62
     0
340
55
144
0.18
309
CONTENTFORMAT_END
171
     0
 94
        0
309
TABLEFORMAT_END
  1
CELLSTYLE_BEGIN
 90
        3
 91
        2
300
_DATA
309
CELLSTYLE_END
  0
ENDSEC
  0
EOF
